Guitar Tabs, Chords and Lyrics
Server problems seems to be fixed. Chordie has been experiencing problems with songs disappearing. These issues now seems to be fixed, but still verifying the fix. If you find anything strange, please email admin@chordie.com.


Dance With Me  Orleans

Orleans - Dance With Me
Tabbed by Baddguitar
INTRO
[D] [G]  
 
 |-0--2--2----|---------------|----------|---------------|
 |-2--3--3----|-5-7-8-7-5-3-2-|-2-3-3----|-2-3-5-3-2-0---|
 |-2--2--2----|-6-7-9-7-6-4-2-|-2-4-4----|-2-4-6-4-2-0-2-|
 |-0--0--0----|---------------|-0-0-0----|-------------4-|
 |------------|---------------|-x-x-x----|---------------|
 |------------|---------------|-3-3-3----|---------------|

[Em] [A] [D]  
 
 |-----------|------------|-0-2-2--|---3---3---3------|
 |-0---------|------0-3-5-|-2-3-3--|---2---2---2------|
 |-0-2-2-0---|-0--2-0-4-6-|-2-2-2--|---3---3---3------|
 |-2-4-4-2-4-|-2--4-------|-0-0-0--|-0----------------|
 |-2---------|------------|--------|-----4---2----0---|
 |-0---------|------------|--------|------------------|

During the chorus and verse, you can opt to:
a) Do the above while singing
b) Just strum the chords below
c) Play the chords with some of the melody included (see bottom of tab)
Chorus
[D]Dance with me I want to be your partner
[G]Can't you see the music is just starting
[Em]Night is falling and [A]I am falling
[D]Dance with me
Verse
[D]Fantasy could never be so killing
I [G]feel free I hope that you are willing
[Em]Pick the beat up and [A]kick your feet up
[D]Dance with me
BRIDGE
[Gmaj7]Let it lift up you [A]off the ground
[Gmaj7]Starry eyes and [Esus4]love is all aro[E]und us
[G]I can take you [A]where you [A#dim7]want to [Bm]go
[Gmaj7]Oh [A6]oh - [A]oh
(Chorus)
(Instrumental Chorus)
BRIDGE
(CHORUS)
Outro
(repeat three times)
[D] [G]  
 
 |-0--2--2---0--|-3---0-2-3-2-0---|
 |-2--3--3---2--|-3-3-----------3-|
 |-2--2--2---2--|-0---------------|
 |-0--0--0---0--|-0---------------|
 |--------------|-2---------------|
 |--------------|-3---------------|

then...
[G] [A] [D]  
 
 |------------------------------3--0--2--|
 |---3-2-0----------------------0--2--3--|
 |---------2-0------------------0--2--2--|
 |-------------4-2-0------------0--2--0--|
 |---------------------4--2--0--2--0-----|
 |------------------------------3--------|

====================================================
Variations:
Videos or Orleans show them playing the main riff at the 5th fret:
INTRO
[D] [G]  
 
 |-5--5--5----|---------------|----------|---------------|
 |-5--7--7----|-5-7-8-7-5-3-2-|-2-3-3----|-2-3-5-3-2-0---|
 |-6--7--7----|-6-7-9-7-6-4-2-|-2-4-4----|-2-4-6-4-2-0-2-|
 |-0--0--0----|---------------|-0-0-0----|-------------4-|
 |------------|---------------|-x-x-x----|---------------|
 |------------|---------------|-3-3-3----|---------------|

Sounds great if you can do it.
You may choose to strum the chords and play some melody with it.
It may look something like this:
[D] [G]  
 
 |-0--2--2----|-0-2-3-2-0-----|----------|-----0---------|
 |-2--3--3----|-3-3-3-3-3-3-2-|-2-3-3----|-2-3---3-2-0---|
 |-2--2--2----|-2-2-2-2-2-2-2-|-2-4-4----|-------------2-|
 |-0--0--0----|---------------|-0-0-0----|---------------|
 |------------|---------------|----------|---------------|
 |------------|---------------|----------|---------------|

[Em] [A] [D]  
 
 |-----------|------------|-0-2-2--|---3---3---3------|
 |-0-0-0-0---|------0-3-5-|-2-3-3--|---2---2---2------|
 |-0-2-2-0---|-0--2-0-4-6-|-2-2-2--|---3---3---3------|
 |-2-4-4-2-4-|-2--4-------|-0-0-0--|-0----------------|
 |-2---------|------------|--------|-----4---2----0---|
 |-0---------|------------|--------|------------------|

Just make it your own and have fun with it.

Important: The song above is NOT stored on the Chordie server. The original song is hosted at www.guitaretab.com. Chordie works as a search engine and provides on-the-fly formatting. Chordie does not index songs against artists'/composers' will. To remove this song please click here.

Text color:
Chord color:
Chord grids: 
Font size:    
Page size: 

A A#dim7 A6 Bm D E Em Esus4 G Gmaj7
Rate #2 of 11 versions

Jango Player

Login - add to songbook

SHARE PAGE  




You need to log in to post comments