Guitar Tabs, Chords and Lyrics
Server problems seems to be fixed. Chordie has been experiencing problems with songs disappearing. These issues now seems to be fixed, but still verifying the fix. If you find anything strange, please email admin@chordie.com.


Still the One  Orleans

Tabbed by John Shaw (jashaw@shaw-web.net)
Artist:Orleans
Intro: E
 
 E|-X-----------------| (Repeat at begging of song)
 B|-X-----------------| Rhythm markings
 D|-X-----------------| v = Down stroke
 G|-8/9-9-11-9-9-11-X-| ^ = Up stroke
 A|-6/7-7-7--7-7-7--X-| X = Rest
 E|-0---0-0--0-0-0--X-|

v ^ v ^ v ^ X
[E]We've been together since way back when
Sometimes I never want to see you again
But I [A]want you to know, after a[Bsus]ll these years[B]
[A]You're still the one I want w[Bsus]hisperin' in my ear[B]
You're [E]still the one I want to [A]talk to in bed
[C#m]Still the one that [F#]turns my head
[A]We're still having fun,[B] and you're still the [E]one
E (Riff 1)
I looked at your face every day
(Riff 2)
But I never saw it 'til I went away
When [A]winter came, I just [Bsus]wanted to go[B] (Ooh, wanted to go)
[A]Deep in the desert, I [Bsus]longed for the snow[B] (go.....Longed.....)
You're [E]still the one that [A]makes me laugh
[C#m]Still the one that's my [F#]better half
[A]We're still having fun,[B] and you're still the o[E]ne
You're [E]still the one that [A]makes me strong
[C#m]Still the one I want to [F#]take along
[A]We're still having fun,[B] and you're still the o[E]ne
Solo:(Verse & Chorus)
[E]  
[A] [B] [A] [B]  
[E]A [A]B [C#m]E ([F#]Ooh)
Bridge:
E (ch)F#/E(/ch)
Changing, our love is going gold
D (ch)C#m/A(/ch) Bsus B
Even though we grow old, it grows new (Ooh)
You're [E]still the one that I [A]love to touch
[C#m]Still the one and I can't[F#] get enough
[A]We're still having fun,[B] and you're still the o[E]ne
A-Cappella (Bass only)
You're [(E)]still the one who can [(A)]scratch my itch
[(C#m)]Still the one and [(F#)]I wouldn't switch
[(A)]We're still having fun[(B)], and you're still the on[E]e
[A]You [B]are [E]still the one that [A]makes me shout
[C#m]Still the one that I [F#]dream about
[A]We're still having fun,[B] and you're still the o[E]ne
You are [E]still the one [A] You are s[C#m]till the one[F#]
[A]We're still having fun,[B] and you're still the o[E]ne
Ending Chord Pattern
1st Guitar
[E] [E] [E+5] [F#] [F#+5] [F#] [D] [A] [A] [E]  
 
 e|--0--4-7---6--9----14-10-9--5--0-|
 B|--0--5-5---7--7----14-10-10-5--0-|
 G|--1--4-4---6--6----15-11-9--6--1-|
 D|--2--6-6---8--8----16-12-11-7--2-|
 A|--2--X-X---X--X----X--X--12-X--2-|
 E|--0--X-X---X--X----X--X--X--X--0-|

2nd Guitar
[E] [E] [E] [F#] [F#] [F#] [D] [A] [A] [E]  
 
 e|--0--4-7---6--9----14-10-9--17-0--|
 B|--0--5-9---7--11---14-10-10-17-0--|
 G|--1--4-9---6--11---15-11-9--18-13-|
 D|--2--6-X---8--X----16-12-11-19-14-|
 A|--2--X-X---X--X----X--X--12-X--14-|
 E|--0--X-X---X--X----X--X--X--X--0--|

(Riff 1)
 
 e|-------------------------------------------------------------|
 B|-------------------------------------------------------------|
 G|-------9-11-b13-13-13r11-9-----------------------------------|
 D|-9h11p9--------------------11-9------------------------------|
 A|-------------------------------------------------------------|
 E|-------------------------------------------------------------|

(Riff 2)
 
 e|----------------------12-(14)b16r14--------------------------|
 B|--9-10-11/12-12-14b15--------------(12)b14-------------------|
 G|-------------------------------------------------------------|
 D|-------------------------------------------------------------|
 A|-------------------------------------------------------------|
 E|-------------------------------------------------------------|


Important: The song above is NOT stored on the Chordie server. The original song is hosted at www.guitaretab.com. Chordie works as a search engine and provides on-the-fly formatting. Chordie does not index songs against artists'/composers' will. To remove this song please click here.

Text color:
Chord color:
Chord grids: 
Font size:    
Page size: 

A B Bsus C#m D E E+5 F# F#+5
Rate #1 of 6 versions

Jango Player

Login - add to songbook

SHARE PAGE  




You need to log in to post comments