Guitar Tabs, Chords and Lyrics
Server problems seems to be fixed. Chordie has been experiencing problems with songs disappearing. These issues now seems to be fixed, but still verifying the fix. If you find anything strange, please email admin@chordie.com.


Aicha  Outlandish

Intro:
 
 E-----------3-----------5---7--7------9-7--|
 A-----3-----3------7----5---------------8--|
 D------------------7-------7--4---------9--|
 G---4-----4------7-----------5------11--9--|
 B-2------------5------7-----------9-----7--|
 E-------3------------5----7-------------x--|

All the verse and the chorus are going like:(Bm G D A)
This is a fill up who would be played between the last A and Bm.
 
 E--------2h3p2--------------------|
 A----------------5--3-------------|
 D---------------------------------|
 G---------------------------------|
 B---------------------------------|
 E---------------------------------|

So sweet, so beautiful
Everyday like a queen on her throne
Don't nobody knows how she feels
Aicha, Lady one day it will be real
She moves, she moves like a breeze
I swear I can't get her out of my dreams
To have her shining here by my side
I'd sacrifice all the tears in my eyes
/Chorus
Aicha, Aicha passing me by (there she goes again)
Aicha, Aicha my my my (is it really real)
Aicha, Aicha smile for me now (I don't know I don't know)
Aicha Aicha in my life
(Another fill up which should be played by a mate of you)
 
 E--2-0---------|
 A------3-2-0---|
 D--------------|
 G--------------|
 B--------------|
 E--------------|

She holds her child to her heart
Makes her feel like she's blessed from above
Falls asleep underneath her sweet tears
Her lullaby fades away with his fears
/Chorus
Aicha Aicha, passing me by
Aicha Aicha my my my
(At the half of the chorus you will go to the bridge)
[Em]She needs somebody to l[C]ean on
[Em]Someone body, mind & [C]soul
[Am]To take her hand, to take her [D]world
And show her the [Bm]time of her life, so [Em]true
[Am]Throw the pain away for [Bm]good
No more contemplating [B]boo
(Now back to the original)
Lord knows the way she feels
Everyday in his name she begins
To have her shining right here by my side
I'd sacrifice all the tears in my eyes
Aicha Aicha ecoute moi
Aicha Aicha, passing me by
Aicha Aicha my my my
Aicha Aicha smile for me now
AIcha Aicha in my life

Important: The song above is NOT stored on the Chordie server. The original song is hosted at www.guitaretab.com. Chordie works as a search engine and provides on-the-fly formatting. Chordie does not index songs against artists'/composers' will. To remove this song please click here.

Text color:
Chord color:
Chord grids: 
Font size:    
Page size: 

Am B Bm C D Em
Rate #1 of 16 versions

Jango Player

Login - add to songbook

SHARE PAGE  




You need to log in to post comments