Guitar Tabs, Chords and Lyrics
Major upgrade!! After one year development the new version of Chordie is now online! Please give feedback.


Spending Time  Ozma

Guitars in Standard Tuning
Intro 2x (Phaze Effect)
[C#] [F#] [C] [C#] [F] [F#] [G#]  
Guitar/Keyboard Riff
Guitar Comes In Second Time
[C#] [F#] [C] [C#] [F] [F#] [G#] [C#] [F#] [C] [C#]  
 
 E----------------------------------------------------------------------|
 B-------------7-6---------6------------7-6----6------------------------|
 G-----6---------- 8-6---8--8---------------8----5-6 -s- 15-13----------|
 D-------6-8----------------------6-8---------------------------16-15---|
 A----------------------------------------------------------------------|
 E----------------------------------------------------------------------|

[F] [F#] [G#] [C]  
 
 E-------------------------------------|
 B-------------------------------------|
 G-13-15-13----------------------------|
 D---------- 16-15---16-15-13----------|
 A--------------------------------16~--|
 E-------------------------------------|

Bridge
[C#] [G#] [A#] [F#] [F] [D#] [C#]  
Verse
[C#]eastern time, central time, slow down
[C#]if you're racing time and chasing time, slow down
[C#]you're buying time and spending time, slow down
[C#]you're killing time, precious time, slow down
Bluesy Lick
 
 E------------------------------------------------------|
 B------------------------------------------------------|
 G---------------------------------4^6)-4^6)-4^--4---1~-|
 D----------------------3-4-3-2~---------------4---4----|
 A------------------2-4---------------------------------|
 E--0---2-2-2-4-5---------------------------------------|
 P{------------------|
 E-------------------|
 B-------------------|
 G-------------------|
 D-4-3-2-------------|
 A--------4-2--------|
 E------------5~-----|

[C#]the borderline is in your mind, slow down
 
 E-----------------------|
 B-----------------------|
 G-----------------------|
 D----7-6-5-7~--5-6~-----|
 A-----------------------|
 E-----------------------|

Bridge
[E] [F]  
[F#]once you've crossed it, [A#]then you've lost it
[F]no sense [A]looking [A#]back
[F#]let the minutes [A#]take you with them
[F] [A] [A#] [B] [A#]  
[G#]no sense keeping track
Chorus
[C#]where we'll [F#]go we [C]just don't [C#]know
all we [F]have is [F#]time to [G#]rocket [C#]slowly [F#]through the [C]gala[C#]xy
or [F]two or [F#]three, 'til [G#]we break [C#]free
Bridge
[C#] [G#] [A#] [F#] [F] [D#] [C#]  
Verse
[C#]finding time, losing time, slow down
[C#]bending time, breaking time, slow down
any time you've got the time slow down
 
 E-----------------------|
 B-----------------------|
 G-----------------------|
 D--1---3-4---1----------|
 A----------3------------|
 E-----------------------|
 E-----------------------|
 B-----------------------|
 G-----------------------|
 D---2-1-----------------|
 A-------4---4-2---------|
 E----------------5~-----|
 P(--------------------------------------|
 E---------------------------------------------------------|
 B---------------------------------------------------------|
 G---------------------------------------------------------|
 D---------------------------------------------------------|
 A------------------------1 2----4~----2-3~~---------------|
 E---5--2-4-5-5-4~---2-4-------4---------------------------|

[F#]once you go there [A#]then you'll be there [F]every [A]tuesday [A#]night
[F#]TV's jumping [A#]to the ceiling
F A A# B A# G# (Hammer Ons)
watch that kid take flight
Chorus
[C#]where we'll [F#]go we [C]still don't [C#]know
but will [F]take this [F#]time to r[G#]ocket [C#]slowly [F#]through the [C]galaxy[C#]
or [F]two or [F#]three, 'til [G#]we break [C#]free
from [F#]time was [C]just a [C#]line
that we [F]kept in [F#]mind but [G#]never [C#]thought we'd [F#]cross 'til [C]we got [C#]lost
yeah the [F]border[F#]line is [G#]in your [C#]mind
[C#] [G#] [A#] [F#] [F] [D#] [C#] 

Important: The song above is NOT stored on the Chordie server. The original song is hosted at www.guitaretab.com. Chordie works as a search engine and provides on-the-fly formatting. Chordie does not index songs against artists'/composers' will. To remove this song please click here.

Text color:
Chord color:
Chord grids: 
Font size:    
Page size: 

A A# B C C# D# E F F# G#
Rate #2 of 4 versions

Jango Player

Login - add to songbook

SHARE PAGE  



You need to log in to post comments