Guitar Tabs, Chords and Lyrics
Major upgrade!! After one year development the new version of Chordie is now online! Please give feedback.


Over the Mountain  Ozzy Osbourne

SONG: Over the Mountain
ARTIST: Ozzy Osbourne
TITLE: Diary of a Madman
WRITTEN BY: Ozzy Osbourne, Randy Rhoads and Bob Daisley
TRANSCRIBED BY: Bryan Mier
X = muffled string
 
 ------- = strings 

\ = slide down guitar
/ = slide up guitar
> = pick slide
| = bars
h = hammer-on
pp = pull-off
t = tap with right hand (pick hand)
b = bend to the note specified (1/2 note is the same as 1 fret)
P.H. = pinch harmonic
tr = trill
Note! There may be some mistakes in solo
Tune down 1/2 step
Intro play 4 times
Rhy. Fig. 1 (end Rhy. Fig. 1)
 
 |-------|--------------------------------|---------------------------------|
 |-------|--------------------------------|---------------------------------|
 |-------|--------------------------------|---------------------------------|
 |-------|-6------------------------------|---------------------------------|
 |--7--7-|-6------------------------------|-------------------------7--7----|
 |--0--5-|-4--4-4-4-4-4-4-4-4-4-4-4-4-4-4-|-4-4-4-4-4-4-4-4-4-4-4-4-0--5----|

Rhy. Fig. 2
Over the mountain...
 
 |--------------------------|---------------------------------|-------------|
 |----------------12----11--|---------------------------------|-------------|
 |--------------------------|---------------------------------|-------------|
 |----------x\-----9-----8--|---------------------------------|-------------|
 |--------------------------|---------------------------------|-------------|
 |--4-4-4-4-----------------|-4-4-4-4-4-4-4-4-4-4-4-4-4-4-4-4-|-4-4-4-4-4-4-|

take me across the sky... (end Rhy. Fig. 2)
 
 |-----------------|---------------------------------|----------------------|
 |-----------------|---------------------------------|----------------------|
 |--------------6--|---------------------------------|-------------8h9--11--|
 |--------------6--|---------------------------------|----------6--9----11--|
 |--------------4--|---------------------------------|--------6-------------|
 |-4-4-4-4-4-4-----|-4-4-4-4-4-4-4-4-4-4-4-4-4-4-4-4-|-4-/-7----------------|

Play Rhy. Fig. 2 (2 3/4 times)
[E5]I heard them [F#5]tell me that this [E5]land of dreams was [F#5]now.[B] [A#]
[E5]I told them[F#5] I had ridden sho[E5]oting stars and sai[F#5]d I'd show th[A5]em [G#5]how.
Play Rhy. Fig. 1 (1 1/2 times)
Then Rhy. Fig. 2 (3 3/4 times)
[E5]I heard them [F#5]tell me that this [E5]land of dreams was [F#5]now.[B] [A#]
[E5]I told them[F#5] I had ridden sho[E5]oting stars and sai[F#5]d I'd show th[A5]em [G#5]how.
Play Rhy. Fig. 1 (1 1/2 times)
Don't need no astrology...
 
 |--------------------|--------0-----0-|-------0-----0-|----0---------------|
 |--------------------|------------0---|-----------0---|--------------------|
 |------------------4-|--6-------------|-4-------------|-6-------------4----|
 |----------x\--4---4-|--6-------------|-4-------------|-6-------------4----|
 |--------------4---2-|--4-------------|-2-------------|-4-----------0-2----|
 |-4-4-4-4-x----2-----|----------------|---------------|-----------4--------|

You don't need a ticket ...
 
 |--0-------0-|--------0-----0-|--------0------0-|-------------|-0----------|
 |------0-----|------------0---|-------------0---|-------------|-0----------|
 |------------|-6--------------|-4---------------|-6---------2-|----2--2----|
 |------------|-6--------------|-4---------------|-6---------2-|----2--2----|
 |------------|-4--------------|-2---------------|-4---------0-|----0--0----|
 |------------|----------------|-----------------|-------2-4---|------------|

Interlude Play 4 times
Rhy. Fig. 4 (end Rhy. Fig. 4)
 
 |-----------------------------|---------------------*11--------------------|
 |---------7p6h7---------9p6h9-|----------7p6h7-------------*11-------------|
 |---------8p6h8---------8p6h8-|----------8p6h8-------*8--------------------|
 |-----------------------------|----------------------6------*8-------------|
 |--6-6-6---------6-6-6--------|-6-6-6-6--------------6---------------------|
 |-----------------------------|----------------------4---------------------|

* = Gtr. 2
Guitar solo
Gtr. 1
 
 |---------------|-------------------------|-----------------|--------------|
 |---------------|-------------------------|-----------------|--------------|
 |------------13-|-------------------------|--------------13-|---------/16--|
 |---------------|--------12--------11-9---|-----------------|---12---------|
 |-11------------|-----------------------9-|-9/11------------|--------------|
 |---------------|-------------------------|-----------------|--------------|

| |
|Gtr. 2 |
 
 |-----------------------------------------|--------------------------------|
 |-----------------------------------------|--------------------------------|
 |-----------------------------------------|--------------------------------|
 |-------------6---------------------------|---------------6----------------|
 |-------------------------5---------4-2---|----------------------5----/14--|
 |--4------------------------------------2-|-2-/4---------------------------|

Rhy. Fig. 5
 
 |-------16-19-17p16----16-------------------------|-----------------------|
 |----17-------------19----19p17-16----16----------|-----------------------|
 |-18-------------------------------18----18p16----|-16--------------------|
 |----------------------------------------------19-|----19-18p16-18p16-----|
 |-------------------------------------------------|-------------------19--|
 |-------------------------------------------------|-----------------------|
 |--------4--7--5pp4-----4-------------------------|------------------------|
 |-----5--------------7-----7pp5--4-----4----------|------------------------|
 |--6--------------------------------6-----6pp4----|--4---------------------|
 |-----------------------------------------------7-|-----7--6pp4--6pp4------|
 |-------------------------------------------------|--------------------7---|
 |-------------------------------------------------|------------------------|

play 2 times
(end Rhy. Fig. 5) b:full b:full b:full
 
 |-------------|-----------------------------16-------19(19)-|-16--^-16-----|
 |-------------|--------------------------^-----19p16--------|----19----19--|
 |-------------|----------------------16-18------------------|--------------|
 |-16----------|----------------16-18------------------------|--------------|
 |----19----18-|-------14-16/18------------------------------|--------------|
 |-------------|-14-16---------------------------------------|--------------|

| |
| |
 
 |-------------|
 |-------------|
 |-------------|
 |--4----------|
 |-----7-----6-|
 |-------------| 

h p h p h p hh pp h p h p h p h p h p h p
 
 |--------------------------------------------------------------------------|
 |-16-19-16-16-19-16-19-16--19--16-19-16-19-16-19-16-19-16-19-16-19-16------|
 |--------------------------------------------------------------------------|
 |----------------use trem. bar---------------------------------------------|
 |--------------------------------------------------------------------------|
 |--------------------------------------------------------------------------|

h p
 
 |------7-8-10-7-8----7---------------------|----------------------------0--|
 |-----------------10---8-10-7-8-5-7-5------|-------------------------------|
 |-9-9---------------------------------7--6-|-7-4-5-4---4-------------------|
 |------------------------------------------|---------7---7-5---4-----------|
 |------------------------------------------|-----------------7-------------|
 |------------------------------------------|-------------------------------|

p p p p p p p p p p p p p p h p h p
 
 |--3-2-0-------------------3-2-0-----------------|-------------------------|
 |--------3-2-0-------3-2-0-------3-2-0-----------|-------------------------|
 |--------------3-2-0-------------------3-2-0-2-0-|-(0)-----/(14)-13-14-13--|
 |------------------------------------------------|-------------------------|
 |------------------------------------------------|-------------------------|
 |------------------------------------------------|-------------------------|

b:full p p p p p p p h p p h p p
 
 |-10----------(10)-|-------------------------------------------------------|
 |------------------|-10-7\6--9-6\5--8-5\4--7-4\3--6-3\2-5-2-0-6-3-0-7-4-0--|
 |------------------|-------------------------------------------------------|
 |------------------|-------------------------------------------------------|
 |------------------|-------------------------------------------------------|
 |------------------|-------------------------------------------------------|

b:1/2 b:full b:1 1/2
 
 |-----------------|--------------------------------------------------------|
 |-----------------|--------------------------------------------------------|
 |-----------------|--------------------------------------------------------|
 |-----------------|--------------------------------------------------------|
 |----^------------|-------------x\-----------------------------------------|
 |----6-------(6)--|--(6)---------------------------------------------------|

Play Rhy. Fig. 1 (1 1/2 times)
Then Rhy. Fig. 2 (3 3/4 times)
Then Rhy. Fig. 3
Then Rhy. Fig. 4 (4 times)
OUTRO
p p p p p
 
 |-------11-14-12-11----11-------------------------|------------------------|
 |----12-------------14----14-12-11----11----------|------------------------|
 |-13-------------------------------13----13-11----|-11---------------------|
 |----------------------------------------------14-|----14-13-11-13-11------|
 |-------------------------------------------------|-------------------14---|
 |-------------------------------------------------|------------------------|

p p p
 
 |----------------|-------11-14-12-11----11---------------------------------|
 |----------------|----12-------------14----14-12-11----11------------------|
 |----------------|-13-------------------------------13----13-11------------|
 |-11-------------|----------------------------------------------14---------|
 |----14------13--|---------------------------------------------------------|
 |----------------|---------------------------------------------------------|

p p tr.....
 
 |-------------------------------------|------------------------------------|
 |-------------------------------------|-------------------------11-(12)----|
 |-11----------------------------------|-------------------11-13---------13-|
 |----14-13-11-13-11----11-------------|----------11-13-14------------------|
 |-------------------14----14------13--|-11-13-14---------------------------|
 |-------------------------------------|------------------------------------|

b:full b:full p b:full
 
 |--14-12-11-------------------------(11)\-|-19----(19)-16----16--^---------|
 |-----------14-12-11--------^-------------|---------------19----19---------|
 |--------------------13-11-13-------------|--------------------------------|
 |-----------------------------------------|--------------------------------|
 |-----------------------------------------|--------------------------------|
 |-----------------------------------------|--------------------------------|
 |--------------------------------------------------------------------------|
 |--------------------------------------------------------------------------|
 |--------------------------------------------------------------------------|
 |--------6-----------------------------------------------------------------|
 |--7--7--6-----------------------------------------------------------------|
 |--0--5--4-----------------------------------------------------------------|


Important: The song above is NOT stored on the Chordie server. The original song is hosted at www.guitaretab.com. Chordie works as a search engine and provides on-the-fly formatting. Chordie does not index songs against artists'/composers' will. To remove this song please click here.

Text color:
Chord color:
Chord grids: 
Font size:    
Page size: 

A# A5 B E5 F#5 G#5
Rate #1 of 2 versions

Login - add to songbook

SHARE PAGE  




You need to log in to post comments