Guitar Tabs, Chords and Lyrics
Major upgrade!! After one year development the new version of Chordie is now online! Please give feedback.


Zombie Stomp   Ozzy Osbourne

 
 PM------------------------------|

 


 3x


 

 
 ||-----------------------------------||------------------------------------|
 ||o---------------------------------o||------------------------------------|
 ||-----------------------------------||------------------------------------|
 ||-----------------------------------||-x-x-x-x--x--x-x-x-x-x-x-x-x-x-x-x--|
 ||o---------------------------------o||------------------------------------|
 ||-----------------------------------||------------------------------------|

 


 |


 | Gtr III


 | 3x


 

 
 ||-----------------------------------||------------------------------------|
 ||o---------------------------------o||------------------------------------|
 ||-----------------------------------||------------------------------------|
 ||--------------------------4-4------||---------------------------4-4------|
 ||o---------------------------------o||------------------------------------|
 ||--0h2-2-2-(2)-2-2-0-2-2-2-----2-2--||-0h2-2-2-(2)-2-2---0-2-2-2-----2-2--|
 PM------------------------------------------------------------------|
 |-----------------------------------|-----------------------------------|
 |-----------------------------------|-----------------------------------|
 |-----------------------------------|-----------------------------------|
 |-4-4-4-4-----4-4-4-4-4-4-4-4-4-4-4-|-4-4-4-4-----4-4-4-4-4-4-4-4-4-4-4-|
 |-----------------------------------|-----------------------------------|
 |-----------------------------------|-----------------------------------|

 


 |


 

 
 |-----------------------------------|-----------------------------------|
 |-----------------------------------|-----------------------------------|
 |-----------------------------------|-----------------------------------|
 |---------------------------4-4-----|---------------------------4-4-----|
 |-----------------------------------|-----------------------------------|
 |-0h2-2-2-(2)-2-2---0-2-2-2-----2-2-|-0h2-2-2-(2)-2-2---0-2-2-2-----2-2-|
 PM------------------------------------------------------------------|
 |-----------------------------------|-----------------------------------|
 |-----------------------------------|-----------------------------------|
 |-----------------------------------|-----------------------------------|
 |-4-4-4-4--4--4-4-4-4-4-2-2-2-3-4-4-|-4-4-4-4-----4-4-4-4-4-4-4-4-4-4-4-|
 |-----------------------------------|-----------------------------------|
 |-----------------------------------|-----------------------------------|

 


 |


 

 
 |-----------------------------------|-----------------------------------|
 |-----------------------------------|-----------------------------------|
 |-----------------------------------|-----------------------------------|
 |---------------------------4-4-----|---------------------------4-4-----|
 |-----------------------------------|-----------------------------------|
 |-0h2-2-2-(2)-2-2---0-2-2-2-----2-2-|-0h2-2-2-(2)-2-2---0-2-2-2-----2-2-|
 PM--------------------------------------------------------------------|

 


 8x


 

 
 |-----------------------------------||-------------------------------------||
 |-----------------------------------||o-----------------------------------o||
 |-----------------------------------||-------------------------------------||
 |-4-4-4-4--4--4-4-4-4-4-4-4-4-4-4-4-||--4-4-4-4-----4-4-4-4-4-4-4-4-4-4-4--||
 |-----------------------------------||o-----------------------------------o||
 |-----------------------------------||-------------------------------------||

 


 |


 | 8x


 

 
 |-----------------------------------||-------------------------------------||
 |-----------------------------------||o-----------------------------------o||
 |-----------------------------------||-------------------------------------||
 |---------------------------4-4-----||----------------------------4-4------||
 |-----------------------------------||o-----------------------------------o||
 |-0h2-2-2-(2)-2-2---0-2-2-2-----2-2-||--0h2-2-2-(2)-2-2---0-2-2-2-----2-2--||
 PM---------------------------------
 |-----------------------------------|
 |-----------------------------------|
 |-----------------------------------|
 |-2-4-4-4-----4-4-4-4-4-2-2-2-3-4-4-|
 |-----------------------------------|
 |-----------------------------------|

 


 |


 

 
 |-----------------------------------|
 |-----------------------------------|
 |-----------------------------------|
 |---------------------------4-4-----|
 |-----------------------------------|
 |-0h2-2-2-(2)-2-2---0-2-2-2-----2-2-|

 


 |


 | Gtr II


 

 
 |-----------------------------------|
 |-----------------------------------|
 |-----------------------------------|
 |-----------------------------------|
 |-----------------------------------|
 |-----------------------------------|
 -----------------------------------------|
 |-------------------------------------------|
 |-------------------------------------------|
 |-------------------------------------------|
 |-2-4-4---4-----4---4-4-4-4-2---2-2-3---4-4-|
 |-------------------------------------------|
 |-------------------------------------------|

 


 |


 

 
 |-------------------------------------------|
 |-------------------------------------------|
 |-------------------------------------------|
 |---------------------------------4-4-------|
 |-------------------------------------------|
 |-0h2-2---2-(2)-2---2---0-2-2---2-------2-2-|

 


 |


 

 
 |-------------------------------------------|
 |-------------------------------------------|
 |-------------------------------------------|
 |-3-----3---------3-----3-----3-------3-----|
 |-------------------------------------------|
 |-------------------------------------------|
 PM--------------------------------------------------------------------|
 |-----------------------------------|-------------------------------------|
 |-----------------------------------|-------------------------------------|
 |---------------------------2-2-----|-----------------------------2-2-----|
 |-2-4-4-4-----4-4-4-4-4-4-4-----4-2-|-2--4-4-4-----4-4-4-4--4-4-4-----4-2-|
 |-----------------------------------|-------------------------------------|
 |-----------------------------------|-------------------------------------|

 


 |


 

 
 |-----------------------------------|-------------------------------------|
 |-----------------------------------|-------------------------------------|
 |-----------------------------------|-------------------------------------|
 |---------------------------4-4-----|-----------------------------4-4-----|
 |-----------------------------------|-------------------------------------|
 |-0h2-2-2-(2)-2-2---0-2-2-2-----2-2-|-0h=2-2-2-(2)-2-2---0--2-2-2-----2-2-|

 


 |


 | ~~~~~~~~~~~~~~~~~~~~~~


 

 
 |-----------------------------------|-x\----------------------------------|
 |-----------------------------------|-x\-----------------x\---------------|
 |-----------------------------------|-x\-----------------x\---------------|
 |-----------------------------------|--------------------x\---------------|
 |-----------------------------------|-------------------------------------|
 |-----------------------------------|-------------------------------------|
 PM------------------------------------------------------------------|
 |-----------------------------------|-----------------------------------|
 |-----------------------------------|-----------------------------------|
 |-----------------------------------|-----------------------------------|
 |-4-4-4-4-----4-4-4-4-4-4-4-4-4-4-4-|-2-4-4-4-----4-4-4-4-4-2-2-2-2-2-2-|
 |-----------------------------------|-----------------------------------|
 |-----------------------------------|-----------------------------------|

 


 |


 

 
 |-----------------------------------|-----------------------------------|
 |-----------------------------------|-----------------------------------|
 |-----------------------------------|-----------------------------------|
 |---------------------------4-4-----|---------------------------4-4-----|
 |-----------------------------------|-----------------------------------|
 |-0h2-2-2-(2)-2-2---0-2-2-2-----2-2-|-0h2-2-2-(2)-2-2---0-2-2-2-----2-2-|
 PM------------------------------------------------------------------|
 |-----------------------------------|-----------------------------------|
 |-----------------------------------|-----------------------------------|
 |-----------------------------------|-----------------------------------|
 |-4-4-4-4-----4-4-4-4-4-4-4-4-4-4-4-|-4-4-4-4-----4-4-4-4-4-4-4-4-4-4-4-|
 |-----------------------------------|-----------------------------------|
 |-----------------------------------|-----------------------------------|

 


 |


 

 
 |-----------------------------------|-----------------------------------|
 |-----------------------------------|-----------------------------------|
 |-----------------------------------|-----------------------------------|
 |---------------------------4-4-----|---------------------------4-4-----|
 |-----------------------------------|-----------------------------------|
 |-0h2-2-2-(2)-2-2---0-2-2-2-----2-2-|-0h2-2-2-(2)-2-2---0-2-2-2-----2-2-|
 PM---------------------------------------------------------------------|
 |-----------------------------------|--------------------------------------|
 |-----------------------------------|--------------------------------------|
 |-----------------------------------|--------------------------------------|
 |-4-4-4-4-----4-4-4-4-4-2-2-2-3-4-4-|-4----4-4-4-----4-4-4-4-4-4-4-4-4-4-4-|
 |-----------------------------------|--------------------------------------|
 |-----------------------------------|--------------------------------------|

 


 |


 

 
 |-----------------------------------|--------------------------------------|
 |-----------------------------------|--------------------------------------|
 |-----------------------------------|--------------------------------------|
 |---------------------------4-4-----|------------------------------4-4-----|
 |-----------------------------------|--------------------------------------|
 |-0h2-2-2-(2)-2-2---0-2-2-2-----2-2-|-0h===2-2-2-(2)-2-2---0-2-2-2-----2-2-|

 


 |


 | Gtr II


 

 
 |-----------------------------------|--------------------------------------|
 |-----------------------------------|--------------------------------------|
 |-----------------------------------|-4pb5r======(4)p======2---------------|
 |-----------------------------------|--------------------------------------|
 |-----------------------------------|--------------------------------------|
 |-----------------------------------|--------------------------------------|
 PM-------------------------------------------------------------------|
 |-------------------------------------|-----------------------------------|
 |-------------------------------------|-----------------------------------|
 |-------------------------------------|-----------------------------------|
 |--4--4-4-4-----4-4-4-4-4-2-2-2-3-4-4-|-4-4-4-4-----4-4-4-4-4-4-4-4-4-4-4-|
 |-------------------------------------|-----------------------------------|
 |-------------------------------------|-----------------------------------|

 


 |


 

 
 |-------------------------------------|-----------------------------------|
 |-------------------------------------|-----------------------------------|
 |-------------------------------------|-----------------------------------|
 |-----------------------------4-4-----|---------------------------4-4-----|
 |-------------------------------------|-----------------------------------|
 |--0h=2-2-2-(2)-2-2---0-2-2-2-----2-2-|-0h2-2-2-(2)-2-2---0-2-2-2-----2-2-|

 


 |


 

 
 |-------------------------------------|-----------------------------------|
 |-------------------------------------|-----------------------------------|
 |-(2)---------------------------------|-----------------------------------|
 |-------------------------------------|-----------------------------------|
 |-------------------------------------|-----------------------------------|
 |-------------------------------------|-----------------------------------|
 PM-------------------------------------
 |---------------------------------------|
 |---------------------------------------|
 |-----------------------2b2.5-----------|
 |-4-4-4-4-----4-4-4-4-4---------4-4-2-2-|
 |---------------------------------------|
 |---------------------------------------|

 


 |


 

 
 |---------------------------------------|
 |---------------------------------------|
 |---------------------------------------|
 |-------------------------------4-4-----|
 |---------------------------------------|
 |-0h2-2-2-(2)-2-2---0-2-2-----2-----2-2-|

 


 |


 

 
 |---------------------------------------|
 |---------------------------------------|
 |---------------------------------------|
 |---------------------------------------|
 |---------------------------------------|
 |---------------------------------------|
 -------------------------------------|
 |---------------------------------------|
 |---------------------------------------|
 |---------------------------------------|
 |-4-4-4-4-----4-4-4--4----4-4-4-4-4-4-4-|
 |---------------------------------------|
 |---------------------------------------|

 


 |


 

 
 |---------------------------------------|
 |---------------------------------------|
 |---------------------------------------|
 |-------------------------------4-4-----|
 |---------------------------------------|
 |-0h2-2-2-(2)-2-2----0----2-2-2-----2-2-|

 


 |


 | <


 

 
 |---------------------------------------|
 |---------------------------------------|
 |---------------------------------------|
 |---------------------------------------|
 |---------------------------------------|
 |-------------------12b14---------------|
 PM--------------------------------------
 |------------------------------------------|
 |------------------------------------------|
 |--------------------------2b2.5-----------|
 |---4--4-4-4-----4-4-4-4-4---------4-4-2-2-|
 |------------------------------------------|
 |------------------------------------------|

 


 |


 

 
 |------------------------------------------|
 |------------------------------------------|
 |------------------------------------------|
 |----------------------------------4-4-----|
 |------------------------------------------|
 |---0h=2-2-2-(2)-2-2---0-2-2-----2-----2-2-|

 


 |


 

 
 |------------------------------------------|
 |------------------------------------------|
 |------------------------------------------|
 |------------------------------------------|
 |------------------------------------------|
 |-(12)-------------------------------------|
 ------------------------------------|
 |--------------------------------------|
 |--------------------------------------|
 |--------------------------------------|
 |---4--4-4-4-----4-4-4-4-4-4-4-4-4-4-4-|
 |--------------------------------------|
 |--------------------------------------|

 


 |


 

 
 |--------------------------------------|
 |--------------------------------------|
 |--------------------------------------|
 |------------------------------4-4-----|
 |--------------------------------------|
 |---0h=2-2-2-(2)-2-2---0-2-2-2-----2-2-|

 


 |


 

 
 |--------------------------------------|
 |--------------------------------------|
 |-/14\---------------------------------|
 |-/14\---------------------------------|
 |--------------------------------------|
 |--------------------------------------|
 PM---------------------------------
 |-----------------------------------|
 |-----------------------------------|
 |-----------------------4-4-2-2-----|
 |-4-4-4-4-----4-4-4-4-2---------4-2-|
 |-----------------------------------|
 |-----------------------------------|

 


 |


 

 
 |-----------------------------------|
 |-----------------------------------|
 |-----------------------------------|
 |---------------------------4-4-----|
 |-----------------------------------|
 |-0h2-2-2-(2)-2-2---0-2-2-2-----2-2-|

 


 |


 | Gtr II


 

 
 |-----------------------------------|
 |-----------------------------------|
 |-----------------------------------|
 |-----------------------------------|
 |-----------------------------------|
 |-----------------------------------|
 -----------------------------------------|
 |-------------------------------------------|
 |-------------------------------------------|
 |-------------------------------------------|
 |--4-----4-4-4--------4-4-4-4-4-4-4-4-4-4-4-|
 |-------------------------------------------|
 |-------------------------------------------|

 


 |


 

 
 |-------------------------------------------|
 |-------------------------------------------|
 |-------------------------------------------|
 |-----------------------------------4-4-----|
 |-------------------------------------------|
 |--0h====2-2-2--(2)---2-2---0-2-2-2-----2-2-|

 


 |


 | ~~~~~~


 

 
 |-14-----------(14)\------------------------|
 |-17b19========(17)r\-----------------------|
 |-------------------------------------------|
 |-------------------------------------------|
 |-------------------------------------------|
 |-------------------------------------------|
 PM------------------------------------------------------------------|
 |-----------------------------------|-----------------------------------|
 |-----------------------------------|-----------------------------------|
 |-----------------------4-4-2-2-----|-----------------------------------|
 |-4-4-4-4-----4-4-4-4-2---------4-2-|-4-4-4-4-----4-4-4-4-4-4-4-4-4-4-4-|
 |-----------------------------------|-----------------------------------|
 |-----------------------------------|-----------------------------------|

 


 |


 

 
 |-----------------------------------|-----------------------------------|
 |-----------------------------------|-----------------------------------|
 |-----------------------------------|-----------------------------------|
 |---------------------------4-4-----|---------------------------4-4-----|
 |-----------------------------------|-----------------------------------|
 |-0h2-2-2-(2)-2-2---0-2-2-2-----2-2-|-0h2-2-2-(2)-2-2---0-2-2-2-----2-2-|
 PM----------------------------------
 |------------------------------------------|
 |------------------------------------------|
 |---------------------------5-5---4--4-2-2-|
 |--4----4-4-4-----4-4-4-4-4----------------|
 |------------------------------------------|
 |------------------------------------------|

 


 |


 

 
 |------------------------------------------|
 |------------------------------------------|
 |------------------------------------------|
 |---------------------------------4--4-----|
 |------------------------------------------|
 |--0h===2-2-2-(2)-2-2---0-2-2-2--------2-2-|

 


 |


 | Gtr II


 

 
 |-19b20r========================(19)-------|
 |-19b20r========================(19)-------|
 |------------------------------------------|
 |------------------------------------------|
 |------------------------------------------|
 |------------------------------------------|
 --------------------------------------|
 |----------------------------------------|
 |----------------------------------------|
 |----------------------------------------|
 |--4----4-4-4-----4-4-4--4-4-4-4-4-4-4-4-|
 |----------------------------------------|
 |----------------------------------------|

 


 |


 

 
 |----------------------------------------|
 |----------------------------------------|
 |----------------------------------------|
 |--------------------------------4-4-----|
 |----------------------------------------|
 |--0h===2-2-2-(2)-2-2----0-2-2-2-----2-2-|

 


 |


 

 
 |-17b19-----------------19---------------|
 |----------------------------------------|
 |----------------------------------------|
 |----------------------------------------|
 |----------------------------------------|
 |----------------------------------------|
 PM------------------------------------------------------------------|
 |-----------------------------------|-------------------------------------|
 |-----------------------------------|-------------------------------------|
 |-----------------------4-4-2-2-----|-------------------------------------|
 |-4-4-4-4-----4-4-4-4-2---------4-2-|-4-4-4-4-----4-4-4-4-4-4-4-4-4-4-4---|
 |-----------------------------------|-------------------------------------|
 |-----------------------------------|-------------------------------------|

 


 |


 

 
 |-----------------------------------|-------------------------------------|
 |-----------------------------------|-------------------------------------|
 |-----------------------------------|-------------------------------------|
 |---------------------------4-4-----|---------------------------4-4-------|
 |-----------------------------------|-------------------------------------|
 |-0h2-2-2-(2)-2-2---0-2-2-2-----2-2-|-0h2-2-2-(2)-2-2---0-2-2-2-----2-2---|
 PM-----------------------------------
 |--------------------------------------|
 |--------------------------------------|
 |-------------------------4-4-2-2------|
 |--4--4-4-4-----4-4-4-4-2----------4-2-|
 |--------------------------------------|
 |--------------------------------------|

 


 |


 

 
 |--------------------------------------|
 |--------------------------------------|
 |--------------------------------------|
 |-----------------------------4-4------|
 |--------------------------------------|
 |--0h=2-2-2-(2)-2-2---0-2-2-2------2-2-|

 


 |


 | Gtr II


 

 
 |-18\-----------------------------18---|
 |-17\-----------------------------17---|
 |-15\-----------------------------15---|
 |--------------------------------------|
 |--------------------------------------|
 |--------------------------------------|
 ------------------------------------------|
 |--------------------------------------------|
 |--------------------------------------------|
 |--------------------------------------------|
 |---4---4-4-4-----4-4-4-4-4--4-----4-4-4-4-4-|
 |--------------------------------------------|
 |--------------------------------------------|

 


 |


 

 
 |--------------------------------------------|
 |--------------------------------------------|
 |--------------------------------------------|
 |------------------------------------4-4-----|
 |--------------------------------------------|
 |---0h==2-2-2-(2)-2-2---0-2--2-----2-----2-2-|

 


 |


 

 
 |-(18)\--------------------------------------|
 |-(17)\---------------------[4]b5============|
 |-(15)\---------------------[4]b6============|
 |--------------------------------------------|
 |--------------------------------------------|
 |--------------------------------------------|
 PM----------------------------------
 |-------------------------------------|
 |-------------------------------------|
 |-------------------------5-5-4-4-2-2-|
 |--4--4-4-4-----4-4-4-4-4-------------|
 |-------------------------------------|
 |-------------------------------------|

 


 |


 

 
 |-------------------------------------|
 |-------------------------------------|
 |-------------------------------------|
 |-----------------------------4-4-----|
 |-------------------------------------|
 |--0h=2-2-2-(2)-2-2---0-2-2-2-----2-2-|

 


 |


 

 
 |-------------------------------------|

 


 |-(4)r================================|


 |-(4)r================================|


 

 
 |-------------------------------------|
 |-------------------------------------|
 |-------------------------------------|
 ---------------------------------------|
 |-----------------------------------------|
 |-----------------------------------------|
 |-----------------------------------------|
 |--4----4--4--4-----4-4-4-4-4-4-4-4-4-4-4-|
 |-----------------------------------------|
 |-----------------------------------------|

 


 |


 

 
 |-----------------------------------------|
 |-----------------------------------------|
 |-----------------------------------------|
 |---------------------------------4-4-----|
 |-----------------------------------------|
 |--0h===2--2--2-(2)-2-2---0-2-2-2-----2-2-|

 


 |


 

 
 |-----------------------------------------|
 |-(4)b5---(4)-----------------------------|
 |-(4)b6---(4)-----------------------------|
 |-----------------------------------------|
 |-----------------------------------------|
 |-----------------------------------------|
 PM------------------------------------------------------------------|
 |-----------------------------------|-----------------------------------|
 |-----------------------------------|-----------------------------------|
 |-----------------------4-4-2-2-----|-----------------------------------|
 |-4-4-4-4-----4-4-4-4-2---------4-2-|-4-4-4-4-----4-4-4-4-4-4-4-4-4-4-4-|
 |-----------------------------------|-----------------------------------|
 |-----------------------------------|-----------------------------------|

 


 |


 

 
 |-----------------------------------|-----------------------------------|
 |-----------------------------------|-----------------------------------|
 |-----------------------------------|-----------------------------------|
 |---------------------------4-4-----|---------------------------4-4-----|
 |-----------------------------------|-----------------------------------|
 |-0h2-2-2-(2)-2-2---0-2-2-2-----2-2-|-0h2-2-2-(2)-2-2---0-2-2-2-----2-2-|
 PM--------------------------------------------------------------------|
 |-----------------------------------||------------------------------------|
 |-----------------------------------||o-----------------------------------|
 |-----------------------4-4-2-2-----||------------------------------------|
 |-4-4-4-4-----4-4-4-4-2---------4-2-||--4-4-4-4-----4-4-4-4-4-4-4-4-4-4-4-|
 |-----------------------------------||o-----------------------------------|
 |-----------------------------------||------------------------------------|

 


 |


 

 
 |-----------------------------------||------------------------------------|
 |-----------------------------------||o-----------------------------------|
 |-----------------------------------||------------------------------------|
 |---------------------------4-4-----||----------------------------4-4-----|
 |-----------------------------------||o-----------------------------------|
 |-0h2-2-2-(2)-2-2---0-2-2-2-----2-2-||--0h2-2-2-(2)-2-2---0-2-2-2-----2-2-|

 


 |


 | Gtr II


 | <


 

 
 |-----------------------------------||------------------------------------|
 |-----------------------------------||o-5---------------------------------|
 |-----------------------------------||--4---------------------------------|
 |-----------------------------------||--4---------------------------------|
 |-----------------------------------||o-2---------------------------------|
 |-----------------------------------||------------------------------------|
 PM------------------------------------------------------------------|
 |-----------------------------------|-----------------------------------|
 |-----------------------------------|-----------------------------------|
 |-----------------------4-4-2-2-----|-----------------------------------|
 |-4-4-4-4-----4-4-4-4-2---------4-2-|-4-4-4-4-----4-4-4-4-4-4-4-4-4-4-4-|
 |-----------------------------------|-----------------------------------|
 |-----------------------------------|-----------------------------------|

 


 |


 

 
 |-----------------------------------|-----------------------------------|
 |-----------------------------------|-----------------------------------|
 |-----------------------------------|-----------------------------------|
 |---------------------------4-4-----|---------------------------4-4-----|
 |-----------------------------------|-----------------------------------|
 |-0h2-2-2-(2)-2-2---0-2-2-2-----2-2-|-0h2-2-2-(2)-2-2---0-2-2-2-----2-2-|

 


 |


 | < < <


 

 
 |-----------------------------------|-----------------------------------|
 |-4-----------------5---------------|-----------------------------------|
 |-4-----------------4---------------|-----------------------------------|
 |-4-----------------4---------------|-4---------------------------------|
 |-2-----------------2---------------|-4---------------------------------|
 |-----------------------------------|-2---------------------------------|

 


 


 4.


 

 
 PM------------------------------------------------------------------------|
 |-----------------------------------------||-----------------------------------|
 |----------------------------------------o||-----------------------------------|
 |----------------------------4-4-2-2------||-----------------------------------|
 |--4-4-4--4------4-4-4--4--2---------4-2--||-4-4-4-4-----4-4-4-4-4-4-4-4-4-4-4-|
 |----------------------------------------o||-----------------------------------|
 |-----------------------------------------||-----------------------------------|

 


 |


 

 
 |-----------------------------------------||-----------------------------------|
 |----------------------------------------o||-----------------------------------|
 |-----------------------------------------||-----------------------------------|
 |--------------------------------4-4------||---------------------------4-4-----|
 |----------------------------------------o||-----------------------------------|
 |--0h2-2--2--(2)-2-2----0--2-2-2-----2-2--||-0h2-2-2-(2)-2-2---0-2-2-2-----2-2-|

 


 |


 

 
 |-----------------------------------------||-----------------------------------|
 |----------------------------------------o||-----------------------------------|
 |-11-----11-(11)---9---11\----------------||-----------------------------------|
 |-11-----11-(11)---9---11\----------------||-2---------------------------------|
 |--9------9--(9)---7----9\---------------o||-2---------------------------------|
 |-----------------------------------------||-0---------------------------------|
 PM--------------------------------------|
 |---------------------------------------------------|
 |---------------------------------------------------|
 |---------------------------------------4-4-2-2-----|
 |---------4-----4-4-4-----4-4-4---4---2---------4-2-|
 |---------------------------------------------------|
 |---------------------------------------------------|

 


 |


 

 
 |---------------------------------------------------|
 |---------------------------------------------------|
 |---------------------------------------------------|
 |-------------------------------------------4-4-----|
 |---------------------------------------------------|
 |---------0h====2-2-2-(2)-2-2-----0---2-2-2-----2-2-|

 


 |


 

 
 |---------------------------------------------------|
 |-[4]b5r([4])b5-----------------([4])---------------|
 |-[4]b6r=(4)b6-------------------(4)----------------|
 |---------------------------------------------------|
 |---------------------------------------------------|
 |---------------------------------------------------|
 PM---------------|
 ||----------------------------|
 ||o---------------------------|
 ||--1s2--------------------2--|
 ||--1s2--------------------2--|
 ||o------------------------0--|
 ||------2-2-2-2-0-2--2-2-2----|

 


 |


 

 
 ||----------------------------|
 ||o---------------------------|
 ||----------------------------|
 ||----------------------------|
 ||o---------------------------|
 ||----------------------------|

 


 |


 

 
 ||----------------------------|
 ||o---------------------------|
 ||----------------------------|
 ||----------------------------|
 ||o---------------------------|
 ||----------------------------|

 


 


 Verse


 

 
 PM--------| ~~~~~~~~~ PM--| PM--|
 |--------------------------------||-||-------------------|-------------------|
 |-------------------------------o||-||o------------------|-------------------|
 |-1s2----------------[4]-([4])---||-||-----------------2-|-4----(4)----------|
 |-1s2-----------------4---(4)----||-||--4----(4)-------2-|-4----(4)-------2--|
 |-------------------------------o||-||o-4----(4)---------|-2----(2)-4-3-2-2--|
 |-----2-2-2-2-0-2--x-------------||-||--2----(2)-2-4-5---|----------------0--|
 PM---------------|
 |---------------------------|
 |---------------------------|
 |-1s2--------------------2--|
 |-1s2--------------------2--|
 |------------------------0--|
 |-----2-2-2-2-0-2--2-2-2----|
 PM--------| ~~~~~~~~~ PM--|
 |-------------------------------|-------------------|
 |-------------------------------|-------------------|
 |-1s2----------------[4]-([4])--|----------------2--|
 |-1s2-----------------4---(4)---|-4----(4)-------2--|
 |-------------------------------|-4----(4)----------|
 |-----2-2-2-2-0-2--x------------|-2----(2)-2-4-5----|
 PM------| PM------------------------|
 |------------------|-------------------------------------------|
 |------------------|-------------------------------------------|
 |-4--------------2-|-1s2-------------------------------2-------|
 |-4--------------2-|-1s2-------------------------------2-------|
 |-2----4-4-3-2---0-|-----------------------------------0-------|
 |--------------5---|-----2-2--2-----2-0-2--2--2----2-----------|

 


 |


 | Gtr IV


 

 
 |------------------|---------21b23===================(21)r(21)-|
 |------------------|-------------------------------------------|
 |------------------|-------------------------------------------|
 |------------------|-------------------------------------------|
 |------------------|-------------------------------------------|
 |------------------|-------------------------------------------|

 


 |


 | Gtr II


 

 
 |------------------|-------------------------19b21r=======(19)-|
 |------------------|-------------------------------------------|
 |------------------|-------------------------------------------|
 |------------------|-------------------------------------------|
 |------------------|-------------------------------------------|
 |------------------|-------------------------------------------|
 PM-------------------| ~~~~~~~~~
 |-----------------------------------------------------------||
 |-----------------------------------------------------------||
 |--1s=2-----------------------------------------[4]-([4])---||
 |--1s=2------------------------------------------4---(4)----||
 |-----------------------------------------------------------||
 |--------2-----2--2-2-------0-2------------x----------------||

 


 |


 | ~~~


 

 
 |-21-------20---------19--------19b21r(19)---17-------------||
 |-----------------------------------------------19----------||
 |-----------------------------------------------------------||
 |-----------------------------------------------------------||
 |-----------------------------------------------------------||
 |-----------------------------------------------------------||

 


 |


 

 
 |-17-19-17--------------------------------------------------||
 |----------19p17-19S==17b19---------------------------------||
 |-----------------------------------------------------------||
 |-----------------------------------------------------------||
 |-----------------------------------------------------------||
 |-----------------------------------------------------------||

 


 


 Chorus


 

 
 |-------------|----------|------|
 |---7---------|-5--------|-3----|
 |---6---------|-4--------|-2----|
 |---4---------|-2--------|-0----|
 |-------------|----------|-0----|
 |-------------|----------|------|

 


 |


 | ~~~~


 

 
 |-------------|----------|------|
 |-(19)--------|----------|------|
 |-------------|----------|------|
 |-------------|----------|------|
 |-------------|----------|------|
 |-------------|----------|------|

 


 |


 | ~~~~


 

 
 |-------------|----------|------|
 |-(17)--------|----------|------|
 |-------------|----------|------|
 |-------------|----------|------|
 |-------------|----------|------|
 |-------------|----------|------|
 PM------------|
 |----------------------|----------|----------|------|
 |-5--------------------|-7--------|-5--------|-3----|
 |-4--------------------|-6--------|-4--------|-2----|
 |-2----4-4-7-7-6-6-6-6-|-4--------|-2--------|-0----|
 |----------------------|----------|----------|-0----|
 |----------------------|----------|----------|------|

 


 


 1.


 

 
 |--------------------|----------|------------|----------------|
 |--------------------|----------|------------|-11--(11)\------|
 |-4----------4-4--2--|----------|------------|--9---(9)\------|
 |-4----------4-4--2--|-4--------|-(4)--------|-11--(11)\------|
 |-2----------2-2--0--|-4--------|-(4)--------|----------------|
 |--------------------|-2--------|-(2)--------|----------------|

 


 |


 | Gtr IV


 

 
 |--------------------|----------|------------|----------------|
 |--------------------|----------|------------|----------------|
 |--------------------|----------|------------|----------------|
 |--------------------|----------|------------|----------------|
 |--------------------|----------|------------|----------------|
 |---/(19)\-----------|----------|------------|----------------|
 PM---------------| PM--------| ~~~~~~~~~
 |-----------------||---------------------------|-------------------------------|
 |-----------------||---------------------------|-------------------------------|
 |-----------------||-1s2--------------------2--|-1s2----------------[4]-([4])--|
 |-----------------||-1s2--------------------2--|-1s2-----------------4---(4)---|
 |-----------------||------------------------0--|-------------------------------|
 |-----/(14)--13\--||-----2-2-2-2-0-2--2-2-2----|-----2-2-2-2-0-2--x------------|
 PM---------------| PM--------| ~~~~~~~~~
 |---------------------------|--------------------------------||--------|
 |---------------------------|-------------------------------o||--------|
 |-1s2--------------------2--|-1s2----------------[4]-([4])---||--------|
 |-1s2--------------------2--|-1s2-----------------4---(4)----||-(4)----|
 |------------------------0--|-------------------------------o||-(4)----|
 |-----2-2-2-2-0-2--2-2-2----|-----2-2-2-2-0-2--x-------------||-(2)----|
 |------------|------------------|----------|--------|
 |------------|------------------|----------|--------|
 |------------|------------------|----------|--------|
 |-(4)--------|-(4)----4-2-(2)-2-|-4--------|-(4)----|
 |-(4)--------|-(4)----4-2-(2)-2-|-4--------|-(4)----|
 |-(2)--------|-(2)----2-0-(0)-0-|-2--------|-(2)----|
 |---------------|---------||
 |-11----(11)----|---------||
 |--9-----(9)----|---------||
 |-11----(11)----|---------||
 |---------------|---------||
 |---------------|---------||

 


 |


 | Gtr IV


 

 
 |---------------|---------||
 |---------------|---------||
 |---------------|---------||
 |---------------|---------||
 |---------------|---------||
 |---------------|---------||

 


 


 Guitar Solo


 ~~


 

 
 |-------------------------------------|-------------------------|
 |-------------------------------------|-------------------------|
 |-/8---------------------/8-----------|-\7-------------6--(6)\--|
 |-------------------------------------|-------------------------|
 |-/6---------------------/6-----------|-\5-------------4--(4)\--|
 |-------------------------------------|-------------------------|

 


 |


 

 
 | PM------------------------------------------------|
 |-------------------------------------|-------------------------|
 |-------------------------------------|-------------------------|
 |-------------------------------------|----------------6---4----|
 |-------------------------------------|----------------6---4----|
 |--------------------4-4--2b3-(2)-----|----------------4---2----|
 |--4-4--4--4-4-4-2-2--------------4-2-|--4-4--4--4-4-4----------|

 


 


 ~~


 

 
 |------------------------------------|------------------------|
 |------------------------------------|------------------------|
 |-/8---------------------8s==========|=11-------------10\-----|
 |------------------------------------|------------------------|
 |-/6---------------------6s==========|==9--------------8\-----|
 |------------------------------------|------------------------|

 


 |


 

 
 | PM-----------------------------------------------|
 |------------------------------------|------------------------|
 |------------------------------------|------------------------|
 |------------------------------------|-----------------6---4--|
 |------------------------------------|-----------------6---4--|
 |--------------------4-4-2b3-(2)-----|-----------------4---2--|
 |--4-4--4--4-4-4-2-2-------------4-2-|--4-4--4--4-4-4---------|
 |-----------------------------------------|
 |-17b19-------------------(17)------------|
 |-----------------------------------------|
 |-----------------------------------------|
 |-----------------------------------------|
 |-----------------------------------------|

 


 |


 

 
 | PM---------------------------------|
 |-----------------------------------------|
 |-----------------------------------------|
 |-----------------------------------------|
 |-----------------------------------------|
 |---------------------2-2-----------------|
 |--2----2--2--2-2-2-2-------5b6-(5)-2-2---|

 


 


 N.C.


 ~~~~~


 

 
 |---------------------------------|----------------------------------------------------|
 |-17b19-------------19b22\--(5)/--|-14tr17------13tr16-----12tr15-------11tr14---------|
 |---------------------------------|----------------------------------------------------|
 |---------------------------------|----------------------------------------------------|
 |---------------------------------|----------------------------------------------------|
 |---------------------------------|----------------------------------------------------|

 


 |


 

 
 | PM-------------| PM-------------------------------------------------
 |---------------------------------|----------------------------------------------------|
 |---------------------------------|----------------------------------------------------|
 |--------------------4-------2----|----------------------------------------------------|
 |--------------------4-------2----|----------------------------------------------------|
 |--------------------2-------0----|---------------------------------2-2----------------|
 |--2----2--2--2-2-2---------------|--2-----2--2--------2-2--2-----2------5b6---(5)-2-2-|
 |-----------------------------------------|
 |-10tr13------9tr12-------8tr11--10p7\----|
 |-----------------------------------------|
 |-----------------------------------------|
 |-----------------------------------------|
 |-----------------------------------------|

 


 |


 

 
 |-----------------------|
 |-----------------------------------------|
 |-----------------------------------------|
 |-------------------------4---------2-----|
 |-------------------------4---------2-----|
 |-------------------------2---------0-----|
 |--2-----2--2-------2-2-2-----------------|

 


 


 ~~~~~~~ ~~ ~~


 

 
 |-------------------------------------|
 |-14-14-14---------14-14-----14-14----|
 |-14-14-14---------14-14-----14-14----|
 |----------16-(16)-------16--------16-|
 |-------------------------------------|
 |-------------------------------------|

 


 |


 

 
 |-------------------------------------|
 |--5--------5--(5)--5-----4-----------|
 |--4--------4--(4)--4-----4-----------|
 |--4--------4--(4)--4-----4-----------|
 |--2--------2--(2)--2-----2-----------|
 |-------------------------------------|
 |-------------------------------------------------------------------------|
 |------------17------------17------------17-------------------------------|
 |-16b18-(16)----16b18-(16)----16b18-(16)-----16b18r(16)p14----16p14----16-|
 |----------------------------------------------------------16-------16----|
 |-------------------------------------------------------------------------|
 |-------------------------------------------------------------------------|

 


 |


 

 
 | PM---------------------------------------------------------|
 |-------------------------------------------------------------------------|
 |-------------------------------------------------------------------------|
 |-------------------------------------------------------------------------|
 |--2----------3---------4-------------2--(2)-------------------4----------|
 |--2----------3---------4-------------2--(2)-------------------4----------|
 |--0----------1---------2------0------0--(0)--0------1---------2----------|

 


 


 ~~~~~~~ ~~ ~~~


 

 
 |--------------------------------------|
 |-14-14-14---------14-14-----14-14-----|
 |-14-14-14---------14-14-----14-14-----|
 |----------16-(16)-------16--------16\-|
 |--------------------------------------|
 |--------------------------------------|

 


 |


 

 
 |--------------------------------------|
 |--5--------5--(5)--5-----4------------|
 |--4--------4--(4)--4-----4------------|
 |--4--------4--(4)--4-----4------------|
 |--2--------2--(2)--2-----2------------|
 |--------------------------------------|
 PM----------------------| ~ ~ ~
 |---------------------------------------|----------------------------|
 |-----5-----5------5------5-------------|-2-2-2-------2-2----2-2-----|
 |-5-6---5-6---5-6-----5-6---4b6r(4)-2---|-2-2-2-------2-2----2-2-----|
 |-------------------------------------4-|-------4--4------4------4---|
 |---------------------------------------|----------------------------|
 |---------------------------------------|----------------------------|

 


 |


 

 
 | PM------------------------|
 |---------------------------------------|----------------------------|
 |---------------------------------------|-5-----5-(5)-5---4----------|
 |---------------------------------------|-4-----4-(4)-4---4----------|
 |-2---3---4-----2-(2)-------4-----------|-4-----4-(4)-4---4----------|
 |-2---3---4-----2-(2)-------4-----------|-2-----2-(2)-2---2----------|
 |-0---1---2---0-0-(0)-0-1---2-----------|----------------------------|

 


 


 ~~~~~~~~~~~~~~~~~~~~~~~~~~~~~


 

 
 |-------------------------------|-----------------------------------------------------------------------------------|
 |-2-------5------(5)------7-----|-----------------------------------------------------------------------------------|
 |-4b6-----7b9====(7)r-----9b11--|-16b18-16pb18--16pb17-16pb18--16pb17-16pb18---16pb17-16pb18--16pb17-16pb18--16pb17-|
 |-------------------------------|-----------------------------------------------------------------------------------|
 |-------------------------------|-----------------------------------------------------------------------------------|
 |-------------------------------|-----------------------------------------------------------------------------------|

 


 |


 

 
 | PM----------------------|
 |-------------------------------|-----------------------------------------------------------------------------------|
 |-------------------------------|--5--------------------5--------------------5-----------------5--------------------|
 |-------------------------------|--4--------------------4--------------------4-----------------4--------------------|
 |-2---3-4------2-(2)------4-----|--4--------------------4--------------------4-----------------4--------------------|
 |-2---3-4------2-(2)------4-----|--2--------------------2--------------------2-----------------2--------------------|
 |-0---1-2-0----0-(0)--0-1-2-----|-----------------------------------------------------------------------------------|


Important: The song above is NOT stored on the Chordie server. The original song is hosted at www.guitaretab.com. Chordie works as a search engine and provides on-the-fly formatting. Chordie does not index songs against artists'/composers' will. To remove this song please click here.

This song is displayed as text-only. Transposing and tuning is only available for chordpro-songs.
Rate #1 of 1 versions

Jango Player

Login - add to songbook

SHARE PAGE  




You need to log in to post comments