Guitar Tabs, Chords and Lyrics
Server problems seems to be fixed. Chordie has been experiencing problems with songs disappearing. These issues now seems to be fixed, but still verifying the fix. If you find anything strange, please email admin@chordie.com.


Mouth for War   Pantera

 
 |--------------|----------------|
 |--------------|----------------|
 |--------------|----------------|
 |-7/9-9-9-9-9--|-7/9-9-9--9-9-9-|
 |-7/9-9-9-9-9--|-7/9-9-9--9-9-9-|
 |-5/7-7-7-7-7--|-5/7-7-7--7-7-7-|

 


 


 LEAD IN 1


 ^ ^ * <


 

 
 |--------------|---------------------|
 |--------------|---------------------|
 |--------------|---------------------|
 |-7/9-9-9-9-9--|-7/99999999999-9-9-9-|
 |-7/9-9-9-9-9--|-7/99999999999-9-9-9-|
 |-5/7-7-7-7-7--|-5/77777777777-7-7-7-|

 


 


 INTRO 2


 

 
 |------------------------------|
 |------------------------------|
 |------------------------------|
 |-2-7/9--2-5--2-7/9-2-7/9--2-5-|
 |-2-7/9--2-5--2-7/9-2-7/9--2-5-|
 |-0-5/7--0-3--0-5/7-0-5/7--0-3-|

 


 


 LEAD IN 2 x x x


 

 
 |-------------------------|
 |-------------------------|
 |-------------------------|
 |-2-7/9--2-5-2-9/5--5-5-5-|
 |-2-7/9--2-5-2-9/5--5-5-5-|
 |-0-5/7--0-3-0-7/3--3-3-3-|

 


 


 MAIN RIFF x x x


 

 
 |--------------------------------------------------------------|
 |--------------------------------------------------------------|
 |--------------------------------------------------------------|
 |-2-2-8-2-9/10--7/8-2-5-2--5/7--4/5-2-8-2-9/10--7/8-2-5--5-5-5-|
 |-2-2-8-2-9/10--7/8-2-5-2--5/7--4/5-2-8-2-9/10--7/8-2-5--5-5-5-|
 |-0-0-6-0-7/8 --5/6-0-3-0--3/5--2/3-0-6-0-7/8 --5/6-0-3--3-3-3-|

 


 


 play this twice through when phil isn't singing, then...


 


 RE- -VENGE... x x x


 

 
 |---||--------------------------------------------------------------|
 |---||--------------------------------------------------------------|
 |---||--------------------------------------------------------------|
 |-2-||-2-2-8-2-9/10--7/8-2-5-2--5/7--4/5-2-8-2-9/10--7/8-2-5--5-5-5-|
 |-2-||-2-2-8-2-9/10--7/8-2-5-2--5/7--4/5-2-8-2-9/10--7/8-2-5--5-5-5-|
 |-0-||-0-0-6-0-7/8 --5/6-0-3-0--3/5--2/3-0-6-0-7/8 --5/6-0-3--3-3-3-|

 


 


 ^^ ^^ play this four times ^^


 verse lead in


 


 SOLO RIFF


 [1] [2]  

 
 |-----------------------------------| |---------------------------|
 |-----------------------------------| |---------------------------|
 |------------8-7-6-4-4-------9-8-7~-| |-----------8-7-6-4-4-------|
 |-4/6-6-6-9--8-7-6-4-4--4-2--9-8-7~-| |-4/6-6-6-9-8-7-6-4-4-4-2db-|
 |-4/6-6-6-9--6-5-4-2-2--4-2--7-6-5~-| |-4/6-6-6-9-6-5-4-2-2-4-2db-|
 |-2/4-4-4-7-------------2-0---------| |-2/4-4-4-7-----------2-0db-|

 


 


 then play the solo riff again twice, before going into the break


 


 BREAK


 ^


 

 
 |-----------|
 |-----------|
 |-----------|

 


 |-6-6--6/4/-|


 |-6-6--6/4/-|


 |-4-4--4/2/-|


 


 VERSE 3 RIFF


 

 
 |---------- ------------ ------------ --------------|
 |---------- ------------ ------------ --------------|
 |---------- ------------ ------------ --------------|
 |-66666666-12--66666666-11--66666666-12--66666666-4-|
 |-66666666-12--66666666-11--66666666-12--66666666-4-|
 |-44444444-10--44444444-9 --44444444-10--44444444-2-|


Important: The song above is NOT stored on the Chordie server. The original song is hosted at www.guitaretab.com. Chordie works as a search engine and provides on-the-fly formatting. Chordie does not index songs against artists'/composers' will. To remove this song please click here.

This song is displayed as text-only. Transposing and tuning is only available for chordpro-songs.
Rate #4 of 4 versions

Jango Player

Login - add to songbook

SHARE PAGE  



You need to log in to post comments