Guitar Tabs, Chords and Lyrics
Server problems seems to be fixed. Chordie has been experiencing problems with songs disappearing. These issues now seems to be fixed, but still verifying the fix. If you find anything strange, please email admin@chordie.com.


It Makes Them Disappear  Pantera

SONG: IT MAKES THEM DISAPPEAR
BAND: PanterA
ALBUM: REINVENTING THE STEEL
Gtr I (C G C F A D) - 'Gtr 1'
Gtr II (C G C F A D) - 'Gtr 2'
Gtr III (C G C F A D) - 'Gtr 3'
Gtr IV (C G C F A D) - 'Gtr 4'
Gtr V (C G C F A D) - 'Gtr 5'
Intro
Slowly Q=60
[C5]  
[4/4] Gtr I
H Q S S S S S S S S E. S +E S S S S S S
 
 |-----------------||--------------0-(0)-5p4---------|
 |-----------------||o---------0-------------5p4-----|
 |-----------------||------2-------------------------|
 |-----------------||----4---4-----------------------|
 |-----------2-3-4-||o-5-------------------------3-4-|
 |-----------------||--------------------------------|

S S S S E. S +E S S S S S S
 
 |-------------0-(0)-5p4----------||
 |---------0-------------5p4-----o||
 |-----2--------------------------||
 |---4---4------------------------||
 |-5-------------------------3-4-o||
 |--------------------------------||

N.C. C5 N.C. C5 N.C.
Gtrs II, III
~~ ~~ ~~
H S S Q. H S S Q. H S S Q.
 
 ||----------------|---------------|---------------|
 ||o---------------|---------------|---------------|
 ||----------------|---------------|---------------|
 ||----------------|---------------|---------------|
 ||o---------------|------8p7-4----|---------------|
 ||--0----7p6-3----|-0-------------|-0----7p6-3----|

1. 2.
~~ ~~~ ~~~~~~~
Q Q Q +S +E. Q Q H
 
 |-------------------------||--------------||
 |------------------------o||--------------||
 |-------------------------||--------------||
 |-------------------------||--------------||
 |----/8--[4]b5===(4)r(4)-o||----/8--[4]---||
 |-0-----------------------||-0------------||

N.C.
 
 PM------------------------------------------------

S T T S S T T S S T T S S T T S T T S T T S
 
 |--------------------------------------------------|
 |--------------------------------------------------|
 |--------------------------------------------------|
 |--------------------------------------------------|
 |--------------------------------------------------|
 |-0--6-6-0-0--3-3-0-0-5-5-0-0--1-1-0--4-4-0--3-3-3-|
 -----------------------------------------------|

S T T S S T T S S T T S S T T S T T S T T S
 
 |-------------------------------------------------|
 |-------------------------------------------------|
 |-------------------------------------------------|
 |-------------------------------------------------|
 |-------------------------------------------------|
 |-0--6-6-0-0--3-3-0-0-5-5-0-0--1-1-0--4-4-0-3-3-3-|
 PM-------------------------------------------

S T T S S T T S S T T S S T T S T T S T T S
 
 |---------------------------------------------|
 |---------------------------------------------|
 |---------------------------------------------|
 |---------------------------------------------|
 |---------------------------------------------|
 |-0-6-6-0-0-3-3-0-0-5-5-0-0-1-1-0-4-4-0-3-3-3-|
 -------------------------------| ~~

S T T S S T T S S T T S S T T S S E.
 
 |-----------------------------------------||
 |-----------------------------------------||
 |-----------------------------------------||
 |-----------------------------------------||
 |-----------------------------------------||
 |-0-6-6-0-0-3-3-0-0-5-5-0-0-1-1-0-4-1-----||

Verse
$
 
 PM-------------------------------------------

S T T S S T T S S T T S S T T S T T S T T S
 
 ||----------------------------------------------|
 ||o---------------------------------------------|
 ||----------------------------------------------|
 ||----------------------------------------------|
 ||o---------------------------------------------|
 ||--0-6-6-0-0-3-3-0-0-5-5-0-0-1-1-0-4-4-0-3-3-3-|
 -------------------------------------------|

S T T S S T T S S T T S S T T S T T S T T S
 
 |----------------------------------------------|
 |----------------------------------------------|
 |----------------------------------------------|
 |----------------------------------------------|
 |----------------------------------------------|
 |-0-6-6-0-0-3-3-0-0-5-5-0-0-1-1-0-4-4-0-3-3-3--|
 PM-------------------------------------------

S T T S S T T S S T T S S T T S T T S T T S
 
 |---------------------------------------------|
 |---------------------------------------------|
 |---------------------------------------------|
 |---------------------------------------------|
 |---------------------------------------------|
 |-0-6-6-0-0-3-3-0-0-5-5-0-0-1-1-0-4-4-0-3-3-3-|
 ---------------------------------------|

S T T S S T T S S T T S S T T S T T S E
 
 |------------------------------------------|
 |------------------------------------------|
 |------------------------------------------|
 |------------------------------------------|
 |------------------------------------------|
 |-0-6-6-0-0-3-3-0-0-5-5-0-0-1-1-0-3-3-0-1--|

[C5C#5] [C5] [C#5] [C5] [C#5] [C5] [C#5] [C5]  
 
 PM--------------------------------------------------------------|

S S S S S S S S S S S S S S S S S S S S S S S S S S S S S S S S
 
 |---------------------------------|---------------------------------|
 |---------------------------------|---------------------------------|
 |---------------------------------|---------------------------------|
 |---------------------------------|---------------------------------|
 |-0-1-1-1-0-0-0-1-1-1-0-0-x-x-x-x-|-0-1-1-1-0-0-0-1-1-1-0-0-x-x-x-x-|
 |-0-1-1-1-0-0-0-1-1-1-0-0-x-x-x-x-|-0-1-1-1-0-0-0-1-1-1-0-0-x-x-x-x-|

1.
[C#5] [C5] [C#5] [C5] [C#5] [C5] [C#5] [C5]  
 
 PM--------------------------------------------------------|

S S S S S S S S S S S S S S S S S S S S S S S S S S S S E E
 
 |---------------------------------|--------------------------------||
 |---------------------------------|-------------------------------o||
 |---------------------------------|--------------------------------||
 |---------------------------------|--------------------------------||
 |-0-1-1-1-0-0-0-1-1-1-0-0-x-x-x-x-|-0-1-1-1-0-0-0-1-1-1-0-0-x-----o||
 |-0-1-1-1-0-0-0-1-1-1-0-0-x-x-x-x-|-0-1-1-1-0-0-0-1-1-1-0-0-x------||

2.,3.
[C5C#5] [C5] [C#5] [C5]  
 
 PM----------------------|

S S S S S S S S S S S S e E
 
 |------------------------------|
 |------------------------------|
 |------------------------------|
 |------------------------------|
 |-0-1-1-1-0-0-0-1-1-1-0-0-0----|
 |-0-1-1-1-0-0-0-1-1-1-0-0-0----|

Chorus
To Coda
[F#5] [C5E5C#C5F#5] [C5E5C#C5F#5] [C5E5] [C#C5C#5] 
E S S S S E S S S S E S S [2/4] S S E Q 4x
 
 ||----------------------------------|---------------||
 ||o---------------------------------|------------o--||
 ||----------------------------------|--------0------||
 ||----------------------------------|---------------||
 ||o-6--0-4-1-0-6--0-4-1-0-6--0-4-|-1-0-1------o-----||
 ||--6--0-4-1-0-6--0-4-1-0-6--0-4-|-1-0-1------------||

[C5]  
[4/4] W +W
 
 |------------------------------|--------------------------------|
 |------------------------------|--------------------------------|
 |------------------------------|--------------------------------|
 |------------------------------|--------------------------------|
 |-0----------------------------|-(0)----------------------------|
 |-0----------------------------|-(0)----------------------------|

|
| Gtr I
| S S S S E. S +E S S S S S S S S S S E. S +E S S S S S S
 
 |------------0-(0)-5p4---------|--------------0-(0)-5p4---------|
 |---------0------------5p4-----|-----------0------------5p4-----|
 |-----2------------------------|-------2------------------------|
 |---4---4----------------------|-----4---4----------------------|
 |-5------------------------3-4-|--5-------------------------3-4-|
 |------------------------------|--------------------------------|

C5 N.C. C5 N.C.
~~ ~~
W H S S Q. H S S Q.
 
 |------------------------------|---------------|----------------|
 |------------------------------|---------------|----------------|
 |------------------------------|---------------|----------------|
 |------------------------------|---------------|----------------|
 |------------------------------|---------------|------8p7-4-----|
 |------------------------------|-0----7p6-3----|-0--------------|

|
| S S S S E. S +E S S S S S S W W
 
 |------------0-(0)-5p4---------|---------------|----------------|
 |---------0------------5p4-----|---------------|----------------|
 |-----2------------------------|---------------|----------------|
 |---4---4----------------------|---------------|----------------|
 |-5------------------------3-4-|---------------|----------------|
 |------------------------------|---------------|----------------|

C5 N.C.
 
 ~~ PM----------------------------------------------

H S S Q. S T T S S T T S S T T S S T T S T T S T T S
 
 |-----------------|------------------------------------------------|
 |-----------------|------------------------------------------------|
 |-----------------|------------------------------------------------|
 |-----------------|------------------------------------------------|
 |-----------------|------------------------------------------------|
 |-0-----7p6-3-----|-0--6-6-0-0--3-3-0-0-5-5-0-0--1-1-0-4-4-0-3-3-3-|
 ----------------------------------------------|

S T T S S T T S S T T S S T T S T T S T T S
 
 |--------------------------------------------------|
 |--------------------------------------------------|
 |--------------------------------------------------|
 |--------------------------------------------------|
 |--------------------------------------------------|
 |-0--6-6-0-0--3-3-0-0-5-5-0-0--1-1-0-4-4-0-3-3-3---|
 PM-------------------------------------------

S T T S S T T S S T T S S T T S T T S T T S
 
 |---------------------------------------------|
 |---------------------------------------------|
 |---------------------------------------------|
 |---------------------------------------------|
 |---------------------------------------------|
 |-0-6-6-0-0-3-3-0-0-5-5-0-0-1-1-0-4-4-0-3-3-3-|

D.S. al Coda
 
 -------------------------------| ~~

S T T S S T T S S T T S S T T S S E.
 
 |--------------------------------------||
 |--------------------------------------||
 |--------------------------------------||
 |--------------------------------------||
 |--------------------------------------||
 |-0-6-6-0-0-3-3-0-0-5-5-0-0-1-1-0-4-1--||

&
C5 N.C.
Gtrs II, III
~ ~ ~ PM| PM PM
H H H H H H Q. S S +S S S S S S S S
 
 |------5----|------5----|------5----|------------------------------------||
 |------3----|------3----|------3----|------------------------------------||
 |-2---------|-2---------|-2---------|-2-------10-(10)-----9---8---6------||
 |-0---------|-0---------|-0---------|-0--------9--(9)-----8---7---6------||
 |-0---------|-0---------|-0---------|-0-----x----------------------------||
 |-0---------|-0---------|-0---------|-0-----x----------0-0----0----0-----||

Interlude
12/8[Ab/C] [Bb/C] [Eb5] [F5]
Gtr II
~~~
E E E Q. E E E Q E E E E E E E H.
 
 |-------------------------------|--------------------------------|
 |---13-------------13--------13-|---12-13-13-12-13-13------------|
 |-------------------------------|-5--------5--7--6--5------------|
 |--------6--5-4--3-------5-4--3-|--------------------------------|
 |-5-----------------------------|--------------------------------|
 |-------------------------------|--------------------------------|

| E E E E E E E E E E E E E E E E E E H.
|
| Gtr IV
| PM| PM| PM| PM| PM| PM|
| E E E E E E E E E E E E E E E E E E E E E E E E
 
 |-------------------------------|--------------------------------|
 |-------------------------------|--------------------------------|
 |-7------7------10------10------|-5--------5---------------------|
 |-7------7-------8-------8------|-5--------5---------------------|
 |-------------------------------|------------------/3--3-3-5-5-5-|
 |----0-0----0-0-----0-0----0--0-|----0--0-----0--0-/3--3-3-5-5-5-|

[C5] [Ab/C] [Bb/C] [Eb5] ~~~~~~~[F5]~~~~
E E E Q. E E E Q E E E E E E E Q. Q.
 
 |-------------------------------|-----------------------------------|
 |---13-------------13--------13-|---12-13-13-12-13------------------|
 |-------------------------------|-5--------5--7--6-/12------10------|
 |--------6--5-4--3-------5-4--3-|-------------------/5-------3------|
 |-5-----------------------------|-----------------------------------|
 |-------------------------------|-----------------------------------|

| E E E E E E E E E E E E E E E E E E Q. Q.
|
| PM| PM| PM| PM| PM| PM|
| E E E E E E E E E E E E E E E E E E E E E E E E
 
 |-------------------------------|-----------------------------------|
 |-------------------------------|-----------------------------------|
 |-7------7------10------10------|-5--------5------------------------|
 |-7------7-------8-------8------|-5--------5------------------------|
 |-------------------------------|-------------------/3--3-3--5--5-5-|
 |----0-0----0-0-----0-0----0--0-|----0--0-----0--0--/3--3-3--5--5-5-|

[C5] [Ab/C] [Bb/C] [Eb5] ~~~~~~~[F5]~~~
E E E Q. E E E Q E E E E E E E Q. Q.
 
 |-------------------------------|----------------------------------|
 |---13-------------13--------13-|---12-13-13-12-13-/10------8------|
 |-------------------------------|-5--------5--7--6-/10------9------|
 |--------6--5-4--3-------5-4--3-|----------------------------------|
 |-5-----------------------------|----------------------------------|
 |-------------------------------|----------------------------------|

| E E E E E E E E E E E E E E E E E E Q. Q.
|
| PM| PM| PM| PM| PM| PM|
| E E E E E E E E E E E E E E E E E E E E E E E E
 
 |-------------------------------|----------------------------------|
 |-------------------------------|----------------------------------|
 |-7------7------10------10------|-5--------5-----------------------|
 |-7------7-------8-------8------|-5--------5-----------------------|
 |-------------------------------|-------------------/3--3-3-5--5-5-|
 |----0-0----0-0-----0-0----0--0-|----0--0-----0--0--/3--3-3-5--5-5-|

[C5] [Ab/C] [Bb/C] [Eb5] ~~~[F5]
E E E Q. E E E Q E E E E E E E H.
 
 |-------------------------------|--------------------------------|
 |---13-------------13--------13-|---12-13-13-12-13-/6------------|
 |-------------------------------|-5--------5--7--6-/7------------|
 |--------6--5-4--3-------5-4--3-|--------------------------------|
 |-5-----------------------------|--------------------------------|
 |-------------------------------|--------------------------------|

| E E E E E E E E E E E E E E E E E E H.
|
| PM| PM| PM| PM| PM| PM|
| E E E E E E E E E E E E E E E E E E E E E E E E
 
 |-------------------------------|--------------------------------|
 |-------------------------------|--------------------------------|
 |-7------7------10------10------|-5--------5---------------------|
 |-7------7-------8-------8------|-5--------5---------------------|
 |-------------------------------|------------------/3--3-3-5-5-5-|
 |----0-0----0-0-----0-0----0--0-|----0--0-----0--0-/3--3-3-5-5-5-|

[C5]  
[4/4] ~~~ ~~~
+H. Q H. Q
 
 |----------------------------------|----------------------------------|
 |-(6)-------------------11---------|-10--------------------13---------|
 |-(7)--------------------7---------|-10---------------------9---------|
 |----------------------------------|----------------------------------|
 |----------------------------------|----------------------------------|
 |----------------------------------|----------------------------------|

| +H. Q H. Q
|
| W +W
 
 |----------------------------------|----------------------------------|
 |----------------------------------|----------------------------------|
 |----------------------------------|----------------------------------|
 |----------------------------------|----------------------------------|
 |--0-------------------------------|-(0)------------------------------|
 |--0-------------------------------|-(0)------------------------------|

|
| Gtr I
| S S S S E. S +E S S S S S S S S S S E. S +E S S S S S S
 
 |---------------0-(0)-5p=4---------|---------------0-(0)-5p=4---------|
 |-----------0--------------5p4-----|-----------0--------------5p4-----|
 |-------2--------------------------|-------2--------------------------|
 |-----4---4------------------------|-----4---4------------------------|
 |--5---------------------------3-4-|--5---------------------------3-4-|
 |----------------------------------|----------------------------------|

~~~ ~~~
H. Q W
 
 |-------------------------------------|------------------------------------||
 |-12----------------------/17---------|-13---------------------------------||
 |--7----------------------------------|------------------------------------||
 |---------------------------5---------|--3---------------------------------||
 |-------------------------------------|------------------------------------||
 |-------------------------------------|------------------------------------||

| H. Q W
|
| +W +W
 
 |-------------------------------------|------------------------------------||
 |-------------------------------------|------------------------------------||
 |-------------------------------------|------------------------------------||
 |-------------------------------------|------------------------------------||
 |-----(0)-----------------------------|-(0)--------------------------------||
 |-----(0)-----------------------------|-(0)--------------------------------||

|
| S S S S E. S +E S S S S S S S S S S E. S +E S S S S S S
 
 |-----------------0-(0)-5p==4---------|---------------0-(0)-5p4------------||
 |-------------0---------------5p4-----|-----------0-------------5p4--------||
 |---------2---------------------------|-------2----------------------------||
 |------4----4-------------------------|-----4---4--------------------------||
 |--5------------------------------3-4-|--5--------------------------3-4----||
 |-------------------------------------|------------------------------------||

Guitar Solo
[Cm]Gtr V
~~~ ~~~~~~ ~~~
 
 |----3----|

Q. T T S +Q. T T +S +Q E E E +Q. S S
 
 |-------------------------------|---------------------------------------|
 |-------------------------------|--------[8]----------------------------|
 |--------------------5h7b9==(7)-|-(7)---------[7]--[7]r=(7)----9h10b12==|
 |--------3h5s7-(7)--------------|---------------------------------------|
 |-/5----------------------------|---------------------------------------|
 |-------------------------------|---------------------------------------|

[Fm] ~~~[Eb]~~~~~~ ~~~~~~~
+Q S S +S +S +E S +S Q
 
 |-----------------------------------------------------------|
 |--------11-------------------------------------------------|
 |-(10)------10r(10)b12==(10)-(10)r--10b12==(10)--10(22)r----|
 |-----------------------------------------------------------|
 |-----------------------------------------------------------|
 |-----------------------------------------------------------|

[Cm] ~~~~
a +Q S S +S +S +S S S +S +E E
 
 |---------------------------------------------------------------|
 |----------------13-----------------------13--------------------|
 |-/12b14==(12)------12r(12)b14==(12)-(12)----12r(12)b14-(12)----|
 |---------------------------------------------------------------|
 |---------------------------------------------------------------|
 |---------------------------------------------------------------|

[Gm] ~~~~
Q +Q T s T T T T T T T T T T T T T
 
 |------------------------------------------------------------|
 |-/14b15--(14)--10-13-13p10----------------10-13p10----------|
 |---------------------------13p12p10-12h13----------13p12p10-|
 |------------------------------------------------------------|
 |------------------------------------------------------------|
 |------------------------------------------------------------|

[Cm] [Eb5]  
 
 |---------------6----------------| |---------------6----------------|
 |-------------6-------------|

T T T T T T T T T T T T T T T T T T T T T T T T T T T T T
T T T T T T T T T T T T T T T T T S
 
 |----------------------------------------------------------10----------------------------------------10--------------------------------------|
 |-10-13p10----------------10-13p10----------------10-13p10----13p10----------------10-13p10-------------13p10--------------------------------|
 |----------13p12p10-12h13----------13p12p10-12h13-------------------13p12-10-12h13----------13p12p10----------13p12p10-----------------------|
 |----------------------------------------------------------------------------------------------------------------------12p10-----------------|
 |----------------------------------------------------------------------------------------------------------------------------12-11-10-8h10-8-|
 |--------------------------------------------------------------------------------------------------------------------------------------------|

[Cm] ~~~ ~~~~~~~~~~~~~
S E. S T T T T T T +T T T T E +E T S T
 
 |-----------------------------------------12-15p12-15b17===(15)r--17--------17-|
 |-------------13----15----13-15b17==(15)r----------------------------20b22-----|
 |-10------/14----14----14------------------------------------------------------|
 |----12------------------------------------------------------------------------|
 |------------------------------------------------------------------------------|
 |------------------------------------------------------------------------------|

~~~~~~ ~~~~~
H +S T T Q.
 
 |-17-----------(17)------------------|
 |-20b22========(20)r--17h18----------|
 |---------------------------19b22----|
 |------------------------------------|
 |------------------------------------|
 |------------------------------------|

[Gm] ~~~~~ ~~~~~
E T T S +E. S +E Q +E
 
 |---------20b22==(20)r---20b22==(20)r---20b24r==(20)--|
 |---17h18---------------------------------------------|
 |-----------------------------------------------------|
 |-----------------------------------------------------|
 |-----------------------------------------------------|
 |-----------------------------------------------------|

[Fm] [Eb5] ~~~~~
 
 |-----3------|

E E +E. S +E E E Q
 
 |---/22b25===(22)r--22b25==(22)r--22b25--22b25--22b25----||
 |--------------------------------------------------------||
 |--------------------------------------------------------||
 |--------------------------------------------------------||
 |--------------------------------------------------------||
 |--------------------------------------------------------||

Interlude2
C5 N.C. C5 N.C. C5 N.C. C5 N.C.
Gtrs II, III
~~ ~~ ~~ ~~~~~~~~~~~~
H S S Q. H S S Q. H S S Q. Q Q Q +S E.
 
 |---------------|---------------|---------------|---------------------||
 |---------------|---------------|---------------|---------------------||
 |---------------|---------------|---------------|---------------------||
 |---------------|---------------|---------------|---------------------||
 |---------------|------8p7-4----|---------------|-----/8--[4]--(4)----||
 |-0----7p6-3----|-0-------------|-0----7p6-3----|-0-------------------||

Chorus
[F#5C5E5C#C5F#5C5E5C#C5F#5C5E5] [C#C5C#5] [C5] 
E S S S S E S S S S E S S [2/4] S S E Q 4x[4/4] W
 
 ||-------------------------------|-----------||--------||
 ||o------------------------------|----------o||--------||
 ||-------------------------------|-------0---||--------||
 ||-------------------------------|-----------||--------||
 ||o-6-0-4-1-0-6-0-4-1-0-6-0-4-|-1-0-1----o||-0---------||
 ||--6-0-4-1-0-6-0-4-1-0-6-0-4-|-1-0-1-----||-0---------||


Important: The song above is NOT stored on the Chordie server. The original song is hosted at www.guitaretab.com. Chordie works as a search engine and provides on-the-fly formatting. Chordie does not index songs against artists'/composers' will. To remove this song please click here.

Text color:
Chord color:
Chord grids: 
Font size:    
Page size: 

Ab/C Bb/C C#5 C5 Cm Eb Eb5 F#5 F5 Fm Gm
Rate #1 of 2 versions

Login - add to songbook

SHARE PAGE  



You need to log in to post comments