Guitar Tabs, Chords and Lyrics
Server problems seems to be fixed. Chordie has been experiencing problems with songs disappearing. These issues now seems to be fixed, but still verifying the fix. If you find anything strange, please email admin@chordie.com.


Hard Ride  Pantera

This was submitted to MetalTabs by Steve Rubaszek. He gets all the credit for this. I
though I'd submit it to UG.
Gtr I (E A D G B E) - 'Guitar 1'
Gtr II (E A D G B E) - 'Synth'
Gtr III (E A D G B E) - 'Synth2'
0:00
Q=140
[4/4] Gtr I
W +H.. E
 
 |-----------------|--------------------|
 |-----------------|--------------------|
 |-----------------|--------------------|
 |-2---------------|-(2)--------------4-|
 |-2---------------|-(2)--------------4-|
 |-0---------------|-(0)--------------2-|

|
| Gtr II
| E E E E E E E E E E E E E E E E
 
 |-5-----5-3-----3-|--2-------2-3-----3-|
 |---3-------3-----|------3-------3-----|
 |-----4-------4---|--------4-------4---|
 |-----------------|--------------------|
 |-----------------|--------------------|
 |-----------------|--------------------|

+W +H.. E
 
 |-------------------|---------------------|
 |-------------------|---------------------|
 |-------------------|------------------4--|
 |-(4)---------------|-(4)--------------4--|
 |-(4)---------------|-(4)--------------2--|
 |-(2)---------------|-(2)-----------------|

|
| E E E E E E E E E E E E E E E E
 
 |--5------5-3-----3-|--2-------2-3-----3--|
 |-----3-------3-----|------3-------3------|
 |-------4-------4---|--------4-------4----|
 |-------------------|---------------------|
 |-------------------|---------------------|
 |-------------------|---------------------|

+H.. E +H.. E
 
 |--------------------|--------------------|
 |--------------------|--------------------|
 |-(4)--------------2-|-(2)----------------|
 |-(4)--------------2-|-(2)--------------2-|
 |-(2)--------------0-|-(0)--------------2-|
 |--------------------|------------------0-|

|
| E E E E E E E E E E E E E E E E
 
 |--5-------5-3-----3-|--2-------2-3-----3-|
 |------3-------3-----|------3-------3-----|
 |--------4-------4---|--------4-------4---|
 |--------------------|--------------------|
 |--------------------|--------------------|
 |--------------------|--------------------|

+H.. E H E E E E
 
 |--------------------|----------------|
 |--------------------|----------------|
 |--------------------|----------------|
 |-(2)--------------2-|----------------|
 |-(2)--------------2-|--------5---[7]-|
 |-(0)--------------0-|------7---7-----|

|
| E E E E E E E E W
 
 |--5-------5-3-------|----------------|
 |------3-------3---5-|----------------|
 |--------4-------4---|----------------|
 |--------------------|----------------|
 |--------------------|----------------|
 |--------------------|----------------|

0:14
Gtr I
PM--| PM PM--|
[+E] [E] [E] [E] [E] [E] [E] [E] [+E] [E] [E] [E] [E] [E] [E] [E]  
 
 |---------------------------|-------------------------|
 |---------------------------|-------------------------|
 |---------------------------|-------------------------|
 |-------------[5]-----------|-------------------------|
 |-([7])-------------[9]-[7]-|-([7])---------[5]---[7]-|
 |-------0-0-0-----0---------|-------0-0-0-7-----7-----|

PM--| PM
[+E] [E] [E] [E] [E] [E] [E] [E] [+B] [E] [E] [E] [E]  
 
 |-------------------------|--------------------|
 |-------------------------|--------------------|
 |-------------------------|--------------------|
 |-------------[5]-------7-|-(7)----------------|
 |-([7])-------------[9]-7-|-(7)------[5]---[7]-|
 |-------0-0-0-----0-----5-|-(5)----7-----7-----|

PM--| PM PM--|
[+E] [E] [E] [E] [E] [E] [E] [E] [+E] [E] [E] [E] [E] [E] [E] [E]  
 
 |---------------------------|-------------------------|
 |---------------------------|-------------------------|
 |---------------------------|-------------------------|
 |-------------[5]-----------|-------------------------|
 |-([7])-------------[9]-[7]-|-([7])---------[5]---[7]-|
 |-------0-0-0-----0---------|-------0-0-0-7-----7-----|

PM--| PM
[+E] [E] [E] [E] [E] [E] [E] [E] [+B] [E] [E] [E] [E]  
 
 |-----------------------|--------------------|
 |-----------------------|--------------------|
 |-----------------------|-----------------9--|
 |-------------[5]-----7-|-(7)-------------9--|
 |-([7])-------------9-7-|-(7)------[5]---[7]-|
 |-------0-0-0-----0---5-|-(5)----7-----7-----|

0:29
+Q H. H E E E E +Q H. H E E E E
 
 |---------------|----------------|--------------|----------------|
 |---------------|----------------|--------------|----------------|
 |-(9)\----------|----------------|--------------|----------------|
 |-(9)\----------|----------------|--------------|--------------4-|
 |-(7)\----------|--------[5]---5-|-(5)----------|--------[5]---2-|
 |---------------|------7-----7-3-|-(3)----------|------7-----7---|

+Q H. H E E E E
 
 |--------------|------------------|
 |--------------|------------------|
 |--------------|------------------|
 |-(4)----------|------------------|
 |-(2)----------|--------[5]---[7]-|
 |--------------|------7-----7-----|

PM PM PM PM PM PM
[+E] [E] [E] [E] [E] [E] [E] [E] [E] [E] [E] [E] [E] [E] [E] [E]  
 
 |---------------------------|-------------------------|
 |---------------------------|-------------------------|
 |---------------------------|-------------------------|
 |---------------------------|-[5]-------------------2-|
 |-([7])---[7]---[5]-[7]-----|-------[7]---[5]-[7]---2-|
 |-------0-----0---------0-0-|-----0-----0---------0-0-|

PM PM PM PM PM PM PM PM PM PM PM PM PM PM
+E E e E e E e E e E e E e E e E +E E e E e E e E e E e E e E e E
 
 |-------------------|-----------------|-------------------|-----------------|
 |-------------------|-----------------|-------------------|-----------------|
 |-------------------|-----------------|-------------------|---------------5-|
 |-(2)-2---2---2---2-|---2---2---2---5-|-(5)-5---5---5---5-|---5---5---5---5-|
 |-(2)-2---2---2---2-|---2---2---2---5-|-(5)-5---5---5---5-|---5---5---5---3-|
 |-(0)-0-0-0-0-0-0-0-|-0-0-0-0-0-0-0-3-|-(3)-3-3-3-3-3-3-3-|-3-3-3-3-3-3-3---|

PM PM PM PM PM PM PM
+E E e E e E e E e E e E e E e E +E E E E E E E E H E E E E
 
 |-------------------|-----------------|-------------------|------------------|
 |-------------------|-----------------|-------------------|------------------|
 |-(5)-5---5---5---5-|---5---5---5---4-|-(4)---------------|------------------|
 |-(5)-5---5---5---5-|---5---5---5---4-|-(4)-4-4-4-4-4-4-4-|------------------|
 |-(3)-3-3-3-3-3-3-3-|-3-3-3-3-3-3-3-2-|-(2)-2-2-2-2-2-2-2-|--------[5]---[7]-|
 |-------------------|-----------------|-------------------|------7-----7-----|

0:57
Gtr I
PM--| PM PM--|
[+E] [E] [E] [E] [E] [E] [E] [E] [+E] [E] [E] [E] [E] [E] [E] [E]  
 
 |---------------------------|-------------------------|
 |---------------------------|-------------------------|
 |---------------------------|-------------------------|
 |-------------[5]-----------|-------------------------|
 |-([7])-------------[9]-[7]-|-([7])---------[5]---[7]-|
 |-------0-0-0-----0---------|-------0-0-0-7-----7-----|

|
| Gtr II
| E E E E E E E E E E E E E E E E
 
 |---5-------5--3---------3--|---2-------2-3--------3--|
 |-------3---------3---------|-------3--------3--------|
 |---------4----------4------|---------4---------4-----|
 |---------------------------|-------------------------|
 |---------------------------|-------------------------|
 |---------------------------|-------------------------|

|
| Gtr III
| W +H.. E
 
 |---------------------------|-------------------------|
 |---------------------------|-------------------------|
 |---------------------------|-------------------------|
 |---2-----------------------|--(2)-----------------4--|
 |---2-----------------------|--(2)-----------------4--|
 |---0-----------------------|--(0)-----------------2--|

PM--| PM PM--|
[+E] [E] [E] [E] [E] [E] [E] [E] [+E] [E] [E] [E] [E] [E] [E] [E]  
 
 |---------------------------|-------------------------|
 |---------------------------|-------------------------|
 |---------------------------|-------------------------|
 |-------------[5]-----------|-------------------------|
 |-([7])-------------[9]-[7]-|-([7])---------[5]---[7]-|
 |-------0-0-0-----0---------|-------0-0-0-7-----7-----|

|
| E E E E E E E E E E E E E E E E
 
 |---5-------5--3---------3--|---2-------2-3--------3--|
 |-------3---------3---------|-------3--------3--------|
 |---------4----------4------|---------4---------4-----|
 |---------------------------|-------------------------|
 |---------------------------|-------------------------|
 |---------------------------|-------------------------|

|
| +W +H.. E
 
 |---------------------------|-------------------------|
 |---------------------------|-------------------------|
 |---------------------------|----------------------4--|
 |--(4)----------------------|--(4)-----------------4--|
 |--(4)----------------------|--(4)-----------------2--|
 |--(2)----------------------|--(2)--------------------|

PM--| PM PM--|
[+E] [E] [E] [E] [E] [E] [E] [E] [+E] [E] [E] [E] [E] [E] [E] [E]  
 
 |---------------------------|-------------------------|
 |---------------------------|-------------------------|
 |---------------------------|-------------------------|
 |-------------[5]-----------|-------------------------|
 |-([7])-------------[9]-[7]-|-([7])---------[5]---[7]-|
 |-------0-0-0-----0---------|-------0-0-0-7-----7-----|

|
| E E E E E E E E E E E E E E E E
 
 |---5-------5--3---------3--|---2-------2-3--------3--|
 |-------3---------3---------|-------3--------3--------|
 |---------4----------4------|---------4---------4-----|
 |---------------------------|-------------------------|
 |---------------------------|-------------------------|
 |---------------------------|-------------------------|

|
| +H.. E +H.. E
 
 |---------------------------|-------------------------|
 |---------------------------|-------------------------|
 |--(4)-------------------2--|--(2)--------------------|
 |--(4)-------------------2--|--(2)-----------------2--|
 |--(2)-------------------0--|--(0)-----------------2--|
 |---------------------------|----------------------0--|

PM--| PM PM--|
[+E] [E] [E] [E] [E] [E] [E] [E] [+E] [E] [E] [E] [E] [E] [E] [E]  
 
 |---------------------------|-------------------------|
 |---------------------------|-------------------------|
 |---------------------------|-------------------------|
 |-------------[5]-----------|-------------------------|
 |-([7])-------------[9]-[7]-|-([7])---------[5]---[7]-|
 |-------0-0-0-----0---------|-------0-0-0-7-----7-----|

|
| E E E E E E E E W
 
 |---5-------5--3------------|-------------------------|
 |-------3---------3------5--|-------------------------|
 |---------4----------4------|-------------------------|
 |---------------------------|-------------------------|
 |---------------------------|-------------------------|
 |---------------------------|-------------------------|

|
| +W H.. E
 
 |---------------------------|-------------------------|
 |---------------------------|-------------------------|
 |---------------------------|-------------------------|
 |--(2)----------------------|----------------------2--|
 |--(2)----------------------|----------------------2--|
 |--(0)----------------------|----------------------0--|

Gtr I
PM--| PM PM--|
[+E] [E] [E] [E] [E] [E] [E] [E] [+E] [E] [E] [E] [E] [E] [E] [E]  
 
 |---------------------------|-------------------------|
 |---------------------------|-------------------------|
 |---------------------------|-------------------------|
 |-------------[5]-----------|-------------------------|
 |-([7])-------------[9]-[7]-|-([7])---------[5]---[7]-|
 |-------0-0-0-----0---------|-------0-0-0-7-----7-----|

|
| Gtr II
| E E E E E E E E E E E E E E E E
 
 |---5-------5--3---------3--|---2-------2-3--------3--|
 |-------3---------3---------|-------3--------3--------|
 |---------4----------4------|---------4---------4-----|
 |---------------------------|-------------------------|
 |---------------------------|-------------------------|
 |---------------------------|-------------------------|

|
| Gtr III
| +W +H.. E
 
 |---------------------------|-------------------------|
 |---------------------------|-------------------------|
 |---------------------------|-------------------------|
 |--(2)----------------------|--(2)-----------------4--|
 |--(2)----------------------|--(2)-----------------4--|
 |--(0)----------------------|--(0)-----------------2--|

PM--| PM PM--|
[+E] [E] [E] [E] [E] [E] [E] [E] [+E] [E] [E] [E] [E] [E] [E] [E]  
 
 |---------------------------|-------------------------|
 |---------------------------|-------------------------|
 |---------------------------|-------------------------|
 |-------------[5]-----------|-------------------------|
 |-([7])-------------[9]-[7]-|-([7])---------[5]---[7]-|
 |-------0-0-0-----0---------|-------0-0-0-7-----7-----|

|
| E E E E E E E E E E E E E E E E
 
 |---5-------5--3---------3--|---2-------2-3--------3--|
 |-------3---------3---------|-------3--------3--------|
 |---------4----------4------|---------4---------4-----|
 |---------------------------|-------------------------|
 |---------------------------|-------------------------|
 |---------------------------|-------------------------|

|
| +W +H.. E
 
 |---------------------------|-------------------------|
 |---------------------------|-------------------------|
 |---------------------------|----------------------4--|
 |--(4)----------------------|--(4)-----------------4--|
 |--(4)----------------------|--(4)-----------------2--|
 |--(2)----------------------|--(2)--------------------|

PM--| PM PM--|
[+E] [E] [E] [E] [E] [E] [E] [E] [+E] [E] [E] [E] [E] [E] [E] [E]  
 
 |---------------------------|-------------------------|
 |---------------------------|-------------------------|
 |---------------------------|-------------------------|
 |-------------[5]-----------|-------------------------|
 |-([7])-------------[9]-[7]-|-([7])---------[5]---[7]-|
 |-------0-0-0-----0---------|-------0-0-0-7-----7-----|

|
| E E E E E E E E E E E E E E E E
 
 |---5-------5--3---------3--|---2-------2-3--------3--|
 |-------3---------3---------|-------3--------3--------|
 |---------4----------4------|---------4---------4-----|
 |---------------------------|-------------------------|
 |---------------------------|-------------------------|
 |---------------------------|-------------------------|

|
| +H.. E +H.. E
 
 |---------------------------|-------------------------|
 |---------------------------|-------------------------|
 |--(4)-------------------2--|--(2)--------------------|
 |--(4)-------------------2--|--(2)-----------------2--|
 |--(2)-------------------0--|--(0)-----------------2--|
 |---------------------------|----------------------0--|

PM--| PM
+E E E E E E E E +Q Q E E E E
 
 |---------------------------|--------------------|
 |---------------------------|--------------------|
 |---------------------------|--------------------|
 |-------------[5]-----------|--------------------|
 |-([7])-------------[9]-[7]-|-(7)\-------5---[7]-|
 |-------0-0-0-----0---------|----------7---7-----|

|
| E E E E E E E E W
 
 |---5-------5--3------------|--------------------|
 |-------3---------3------5--|--------------------|
 |---------4----------4------|--------------------|
 |---------------------------|--------------------|
 |---------------------------|--------------------|
 |---------------------------|--------------------|

|
| +H.. E W
 
 |---------------------------|--------------------|
 |---------------------------|--------------------|
 |---------------------------|--------------------|
 |--(2)-------------------2--|--------------------|
 |--(2)-------------------2--|--------------------|
 |--(0)-------------------0--|--------------------|

1:25
Gtr I
PM--| PM PM--|
[+E] [E] [E] [E] [E] [E] [E] [E] [+E] [E] [E] [E] [E] [E] [E] [E]  
 
 |---------------------------|-------------------------|
 |---------------------------|-------------------------|
 |---------------------------|-------------------------|
 |-------------[5]-----------|-------------------------|
 |-([7])-------------[9]-[7]-|-([7])---------[5]---[7]-|
 |-------0-0-0-----0---------|-------0-0-0-7-----7-----|

PM--| PM
[+E] [E] [E] [E] [E] [E] [E] [E] [+B] [E] [E] [E] [E]  
 
 |-----------------------|--------------------|
 |-----------------------|--------------------|
 |-----------------------|-----------------9--|
 |-------------[5]-----7-|-(7)-------------9--|
 |-([7])-------------9-7-|-(7)------[5]---[7]-|
 |-------0-0-0-----0---5-|-(5)----7-----7-----|

1:33
Q H. H E E E E +Q H. H E E E E
 
 |-------------|----------------|--------------|----------------|
 |-------------|----------------|--------------|----------------|
 |-9\----------|----------------|--------------|----------------|
 |-9\----------|----------------|--------------|--------------4-|
 |-7\----------|--------[5]---5-|-(5)----------|--------[5]---2-|
 |-------------|------7-----7-3-|-(3)----------|------7-----7---|

+Q H. H E E E E
 
 |--------------|------------------|
 |--------------|------------------|
 |--------------|------------------|
 |-(4)----------|------------------|
 |-(2)----------|--------[5]---[7]-|
 |--------------|------7-----7-----|

PM PM PM PM PM PM
[+E] [E] [E] [E] [E] [E] [E] [E] [E] [E] [E] [E] [E] [E] [E] [E]  
 
 |---------------------------|---------------------------|
 |---------------------------|---------------------------|
 |---------------------------|---------------------------|
 |---------------------------|-[5]b6-------------------2-|
 |-([7])---[7]---[5]-[7]-----|---------[7]---[5]-[7]---2-|
 |-------0-----0---------0-0-|-------0-----0---------0-0-|

PM PM PM PM PM PM PM PM PM PM PM PM PM PM
+E E e E e E e E e E e E e E e E +E E e E e E e E e E e E e E e E
 
 |-------------------|-----------------|-------------------|-----------------|
 |-------------------|-----------------|-------------------|-----------------|
 |-------------------|-----------------|-------------------|---------------5-|
 |-(2)-2---2---2---2-|---2---2---2---5-|-(5)-5---5---5---5-|---5---5---5---5-|
 |-(2)-2---2---2---2-|---2---2---2---5-|-(5)-5---5---5---5-|---5---5---5---3-|
 |-(0)-0-0-0-0-0-0-0-|-0-0-0-0-0-0-0-3-|-(3)-3-3-3-3-3-3-3-|-3-3-3-3-3-3-3---|

PM PM PM PM PM PM PM
+E E e E e E e E e E e E e E e E +E E E E E E E E H E E E E
 
 |-------------------|-----------------|-------------------|------------------|
 |-------------------|-----------------|-------------------|------------------|
 |-(5)-5---5---5---5-|---5---5---5---4-|-(4)---------------|------------------|
 |-(5)-5---5---5---5-|---5---5---5---4-|-(4)-4-4-4-4-4-4-4-|------------------|
 |-(3)-3-3-3-3-3-3-3-|-3-3-3-3-3-3-3-2-|-(2)-2-2-2-2-2-2-2-|--------[5]---[7]-|
 |-------------------|-----------------|-------------------|------7-----7-----|

2:01
Gtr I
PM--| PM PM--|
[+E] [E] [E] [E] [E] [E] [E] [E] [+E] [E] [E] [E] [E] [E] [E] [E]  
 
 |---------------------------|-------------------------|
 |---------------------------|-------------------------|
 |---------------------------|-------------------------|
 |-------------[5]-----------|-------------------------|
 |-([7])-------------[9]-[7]-|-([7])---------[5]---[7]-|
 |-------0-0-0-----0---------|-------0-0-0-7-----7-----|

|
| Gtr II
| E E E E E E E E E E E E E E E E
 
 |---5-------5--3---------3--|---2-------2-3--------3--|
 |-------3---------3---------|-------3--------3--------|
 |---------4----------4------|---------4---------4-----|
 |---------------------------|-------------------------|
 |---------------------------|-------------------------|
 |---------------------------|-------------------------|

|
| Gtr III
| W +H.. E
 
 |---------------------------|-------------------------|
 |---------------------------|-------------------------|
 |---------------------------|-------------------------|
 |---2-----------------------|--(2)-----------------4--|
 |---2-----------------------|--(2)-----------------4--|
 |---0-----------------------|--(0)-----------------2--|

PM--| PM PM--|
[+E] [E] [E] [E] [E] [E] [E] [E] [+E] [E] [E] [E] [E] [E] [E] [E]  
 
 |---------------------------|-------------------------|
 |---------------------------|-------------------------|
 |---------------------------|-------------------------|
 |-------------[5]-----------|-------------------------|
 |-([7])-------------[9]-[7]-|-([7])---------[5]---[7]-|
 |-------0-0-0-----0---------|-------0-0-0-7-----7-----|

|
| E E E E E E E E E E E E E E E E
 
 |---5-------5--3---------3--|---2-------2-3--------3--|
 |-------3---------3---------|-------3--------3--------|
 |---------4----------4------|---------4---------4-----|
 |---------------------------|-------------------------|
 |---------------------------|-------------------------|
 |---------------------------|-------------------------|

|
| +W +H.. E
 
 |---------------------------|-------------------------|
 |---------------------------|-------------------------|
 |---------------------------|----------------------4--|
 |--(4)----------------------|--(4)-----------------4--|
 |--(4)----------------------|--(4)-----------------2--|
 |--(2)----------------------|--(2)--------------------|

PM--| PM PM--|
[+E] [E] [E] [E] [E] [E] [E] [E] [+E] [E] [E] [E] [E] [E] [E] [E]  
 
 |---------------------------|-------------------------|
 |---------------------------|-------------------------|
 |---------------------------|-------------------------|
 |-------------[5]-----------|-------------------------|
 |-([7])-------------[9]-[7]-|-([7])---------[5]---[7]-|
 |-------0-0-0-----0---------|-------0-0-0-7-----7-----|

|
| E E E E E E E E E E E E E E E E
 
 |---5-------5--3---------3--|---2-------2-3--------3--|
 |-------3---------3---------|-------3--------3--------|
 |---------4----------4------|---------4---------4-----|
 |---------------------------|-------------------------|
 |---------------------------|-------------------------|
 |---------------------------|-------------------------|

|
| +H.. E +H.. E
 
 |---------------------------|-------------------------|
 |---------------------------|-------------------------|
 |--(4)-------------------2--|--(2)--------------------|
 |--(4)-------------------2--|--(2)-----------------2--|
 |--(2)-------------------0--|--(0)-----------------2--|
 |---------------------------|----------------------0--|

PM--| PM PM--|
[+E] [E] [E] [E] [E] [E] [E] [E] [+E] [E] [E] [E] [E] [E] [E] [E]  
 
 |---------------------------|-------------------------|
 |---------------------------|-------------------------|
 |---------------------------|-------------------------|
 |-------------[5]-----------|-------------------------|
 |-([7])-------------[9]-[7]-|-([7])---------[5]---[7]-|
 |-------0-0-0-----0---------|-------0-0-0-7-----7-----|

|
| E E E E E E E E W
 
 |---5-------5--3------------|-------------------------|
 |-------3---------3------5--|-------------------------|
 |---------4----------4------|-------------------------|
 |---------------------------|-------------------------|
 |---------------------------|-------------------------|
 |---------------------------|-------------------------|

|
| +W H.. E
 
 |---------------------------|-------------------------|
 |---------------------------|-------------------------|
 |---------------------------|-------------------------|
 |--(2)----------------------|----------------------2--|
 |--(2)----------------------|----------------------2--|
 |--(0)----------------------|----------------------0--|

Gtr I
PM--| PM PM--|
[E] [E] [E] [E] [E] [E] [E] [E] [+E] [E] [E] [E] [E] [E] [E] [E]  
 
 |-------------------------|-------------------------|
 |-------------------------|-------------------------|
 |-------------------------|-------------------------|
 |-----------[5]-----------|-------------------------|
 |-[7]-------------[9]-[7]-|-([7])---------[5]---[7]-|
 |-----0-0-0-----0---------|-------0-0-0-7-----7-----|

|
| Gtr II
| E E E E E E E E E E E E E E E E
 
 |--5------5--3---------3--|---2-------2-3--------3--|
 |-----3---------3---------|-------3--------3--------|
 |-------4----------4------|---------4---------4-----|
 |-------------------------|-------------------------|
 |-------------------------|-------------------------|
 |-------------------------|-------------------------|

|
| Gtr III
| W +H.. E
 
 |-------------------------|-------------------------|
 |-------------------------|-------------------------|
 |-------------------------|-------------------------|
 |--2----------------------|--(2)-----------------4--|
 |--2----------------------|--(2)-----------------4--|
 |--0----------------------|--(0)-----------------2--|

PM--| PM PM--|
[+E] [E] [E] [E] [E] [E] [E] [E] [+E] [E] [E] [E] [E] [E] [E] [E]  
 
 |---------------------------|-------------------------|
 |---------------------------|-------------------------|
 |---------------------------|-------------------------|
 |-------------[5]-----------|-------------------------|
 |-([7])-------------[9]-[7]-|-([7])---------[5]---[7]-|
 |-------0-0-0-----0---------|-------0-0-0-7-----7-----|

|
| E E E E E E E E E E E E E E E E
 
 |---5-------5--3---------3--|---2-------2-3--------3--|
 |-------3---------3---------|-------3--------3--------|
 |---------4----------4------|---------4---------4-----|
 |---------------------------|-------------------------|
 |---------------------------|-------------------------|
 |---------------------------|-------------------------|

|
| +W +H.. E
 
 |---------------------------|-------------------------|
 |---------------------------|-------------------------|
 |---------------------------|----------------------4--|
 |--(4)----------------------|--(4)-----------------4--|
 |--(4)----------------------|--(4)-----------------2--|
 |--(2)----------------------|--(2)--------------------|

PM--| PM PM--|
[+E] [E] [E] [E] [E] [E] [E] [E] [+E] [E] [E] [E] [E] [E] [E] [E]  
 
 |---------------------------|-------------------------|
 |---------------------------|-------------------------|
 |---------------------------|-------------------------|
 |-------------[5]-----------|-------------------------|
 |-([7])-------------[9]-[7]-|-([7])---------[5]---[7]-|
 |-------0-0-0-----0---------|-------0-0-0-7-----7-----|

|
| E E E E E E E E E E E E E E E E
 
 |---5-------5--3---------3--|---2-------2-3--------3--|
 |-------3---------3---------|-------3--------3--------|
 |---------4----------4------|---------4---------4-----|
 |---------------------------|-------------------------|
 |---------------------------|-------------------------|
 |---------------------------|-------------------------|

|
| +H.. E +H.. E
 
 |---------------------------|-------------------------|
 |---------------------------|-------------------------|
 |--(4)-------------------2--|--(2)--------------------|
 |--(4)-------------------2--|--(2)-----------------2--|
 |--(2)-------------------0--|--(0)-----------------2--|
 |---------------------------|----------------------0--|

PM--| PM
+E E E E E E E E +Q Q Q. E
 
 |---------------------------|-----------------|
 |---------------------------|-----------------|
 |---------------------------|----------4----5-|
 |-------------[5]-----------|----------4----5-|
 |-([7])-------------[9]-[7]-|-(7)\-----2----3-|
 |-------0-0-0-----0---------|-----------------|

|
| E E E E E E E E W
 
 |---5-------5--3------------|-----------------|
 |-------3---------3------5--|-----------------|
 |---------4----------4------|-----------------|
 |---------------------------|-----------------|
 |---------------------------|-----------------|
 |---------------------------|-----------------|

|
| +H.. E W
 
 |---------------------------|-----------------|
 |---------------------------|-----------------|
 |---------------------------|-----------------|
 |--(2)-------------------2--|-----------------|
 |--(2)-------------------2--|-----------------|
 |--(0)-------------------0--|-----------------|

2:29
[4/4] Gtr I
+H.. E +H.. E +W +H.. E
 
 |--------------|--------------|------------|---------------|
 |--------------|--------------|------------|---------------|
 |-(5)--------2-|-(2)----------|------------|------------5--|
 |-(5)--------2-|-(2)--------2-|-(2)--------|-(2)--------5--|
 |-(3)--------0-|-(0)--------2-|-(2)--------|-(2)--------3--|
 |--------------|------------0-|-(0)--------|-(0)-----------|

+H.. E +H.. E +W E E E E E E Q
 
 |--------------|--------------|------------|----------------|
 |--------------|--------------|------------|----------------|
 |-(5)--------2-|-(2)--------7-|-(7)--------|---8-8---8-8----|
 |-(5)--------2-|-(2)--------7-|-(7)--------|---8-8---8-8----|
 |-(3)--------0-|-(0)--------5-|-(5)--------|---6-6---6-6----|
 |--------------|--------------|------------|----------------|

2:43
 
 PM------------|

E E E E E E E E 8x E E E E E E Q 7x E E Q E E Q
 
 ||--------6----------||-||-------------------||---------------|
 ||o-----6-------6---o||-||o-----------------o||---------------|
 ||----6-----6-----6--||-||--7-7---9---11-----||-7-7----9-9----|
 ||--8---------8------||-||--7-7---9---11-----||-7-7----9-9----|
 ||o-----------------o||-||o-5-5---7----9----o||-5-5----7-7----|
 ||-------------------||-||-------------------||---------------|

3:11
[4/4] Gtr I
W +H.. E
 
 |-----------------|--------------------|
 |-----------------|--------------------|
 |-----------------|--------------------|
 |-2---------------|-(2)--------------4-|
 |-2---------------|-(2)--------------4-|
 |-0---------------|-(0)--------------2-|

|
| Gtr II
| E E E E E E E E E E E E E E E E
 
 |-5-----5-3-----3-|--2-------2-3-----3-|
 |---3-------3-----|------3-------3-----|
 |-----4-------4---|--------4-------4---|
 |-----------------|--------------------|
 |-----------------|--------------------|
 |-----------------|--------------------|

+W +H.. E
 
 |-------------------|---------------------|
 |-------------------|---------------------|
 |-------------------|------------------4--|
 |-(4)---------------|-(4)--------------4--|
 |-(4)---------------|-(4)--------------2--|
 |-(2)---------------|-(2)-----------------|

|
| E E E E E E E E E E E E E E E E
 
 |--5------5-3-----3-|--2-------2-3-----3--|
 |-----3-------3-----|------3-------3------|
 |-------4-------4---|--------4-------4----|
 |-------------------|---------------------|
 |-------------------|---------------------|
 |-------------------|---------------------|

+H.. E +H.. E
 
 |--------------------|--------------------|
 |--------------------|--------------------|
 |-(4)--------------2-|-(2)----------------|
 |-(4)--------------2-|-(2)--------------2-|
 |-(2)--------------0-|-(0)--------------2-|
 |--------------------|------------------0-|

|
| E E E E E E E E E E E E E E E E
 
 |--5-------5-3-----3-|--2-------2-3-----3-|
 |------3-------3-----|------3-------3-----|
 |--------4-------4---|--------4-------4---|
 |--------------------|--------------------|
 |--------------------|--------------------|
 |--------------------|--------------------|

+H.. E H E E E E
 
 |--------------------|----------------|
 |--------------------|----------------|
 |--------------------|----------------|
 |-(2)--------------2-|----------------|
 |-(2)--------------2-|--------5---[7]-|
 |-(0)--------------0-|------7---7-----|

|
| E E E E E E E E W
 
 |--5-------5-3-------|----------------|
 |------3-------3---5-|----------------|
 |--------4-------4---|----------------|
 |--------------------|----------------|
 |--------------------|----------------|
 |--------------------|----------------|

3:26
Gtr I
PM--| PM PM--|
[+E] [E] [E] [E] [E] [E] [E] [E] [+E] [E] [E] [E] [E] [E] [E] [E]  
 
 ||----------------------------|-------------------------|
 ||o---------------------------|-------------------------|
 ||----------------------------|-------------------------|
 ||--------------[5]-----------|-------------------------|
 ||o-([7])-------------[9]-[7]-|-([7])---------[5]---[7]-|
 ||--------0-0-0-----0---------|-------0-0-0-7-----7-----|

|
| Gtr II
| E E E E E E E E E E E E E E E E
 
 ||----5-------5--3---------3--|---2-------2-3--------3--|
 ||o-------3---------3---------|-------3--------3--------|
 ||----------4----------4------|---------4---------4-----|
 ||----------------------------|-------------------------|
 ||o---------------------------|-------------------------|
 ||----------------------------|-------------------------|

|
| Gtr III
| W +H.. E
 
 ||----------------------------|-------------------------|
 ||o---------------------------|-------------------------|
 ||----------------------------|-------------------------|
 ||----2-----------------------|--(2)-----------------4--|
 ||o---2-----------------------|--(2)-----------------4--|
 ||----0-----------------------|--(0)-----------------2--|

PM--| PM PM--|
[+E] [E] [E] [E] [E] [E] [E] [E] [+E] [E] [E] [E] [E] [E] [E] [E]  
 
 |---------------------------|--------------------------|
 |---------------------------|--------------------------|
 |---------------------------|--------------------------|
 |-------------[5]-----------|--------------------------|
 |-([7])-------------[9]-[7]-|-([7])---------[5]---[7]--|
 |-------0-0-0-----0---------|-------0-0-0-7-----7------|

|
| E E E E E E E E E E E E E E E E
 
 |---5-------5--3---------3--|---2-------2-3--------3---|
 |-------3---------3---------|-------3--------3---------|
 |---------4----------4------|---------4---------4------|
 |---------------------------|--------------------------|
 |---------------------------|--------------------------|
 |---------------------------|--------------------------|

|
| +W +H.. E
 
 |---------------------------|--------------------------|
 |---------------------------|--------------------------|
 |---------------------------|----------------------4---|
 |--(4)----------------------|--(4)-----------------4---|
 |--(4)----------------------|--(4)-----------------2---|
 |--(2)----------------------|--(2)---------------------|

PM--| PM PM--|
[+E] [E] [E] [E] [E] [E] [E] [E] [+E] [E] [E] [E] [E] [E] [E] [E]  
 
 |---------------------------|-------------------------|
 |---------------------------|-------------------------|
 |---------------------------|-------------------------|
 |-------------[5]-----------|-------------------------|
 |-([7])-------------[9]-[7]-|-([7])---------[5]---[7]-|
 |-------0-0-0-----0---------|-------0-0-0-7-----7-----|

|
| E E E E E E E E E E E E E E E E
 
 |---5-------5--3---------3--|---2-------2-3--------3--|
 |-------3---------3---------|-------3--------3--------|
 |---------4----------4------|---------4---------4-----|
 |---------------------------|-------------------------|
 |---------------------------|-------------------------|
 |---------------------------|-------------------------|

|
| H.. E +H.. E
 
 |---------------------------|-------------------------|
 |---------------------------|-------------------------|
 |---4--------------------2--|--(2)--------------------|
 |---4--------------------2--|--(2)-----------------2--|
 |---2--------------------0--|--(0)-----------------2--|
 |---------------------------|----------------------0--|

PM--| PM PM--|
[+E] [E] [E] [E] [E] [E] [E] [E] [+E] [E] [E] [E] [E] [E] [E] [E]  
 
 |---------------------------|-------------------------|
 |---------------------------|-------------------------|
 |---------------------------|-------------------------|
 |-------------[5]-----------|-------------------------|
 |-([7])-------------[9]-[7]-|-([7])---------[5]---[7]-|
 |-------0-0-0-----0---------|-------0-0-0-7-----7-----|

|
| E E E E E E E E W
 
 |---5-------5--3------------|-------------------------|
 |-------3---------3------5--|-------------------------|
 |---------4----------4------|-------------------------|
 |---------------------------|-------------------------|
 |---------------------------|-------------------------|
 |---------------------------|-------------------------|

|
| +W H.. E
 
 |---------------------------|-------------------------|
 |---------------------------|-------------------------|
 |---------------------------|-------------------------|
 |--(2)----------------------|----------------------2--|
 |--(2)----------------------|----------------------2--|
 |--(0)----------------------|----------------------0--|

Gtr I
PM--| PM PM--|
[+E] [E] [E] [E] [E] [E] [E] [E] [+E] [E] [E] [E] [E] [E] [E] [E]  
 
 |---------------------------|-------------------------|
 |---------------------------|-------------------------|
 |---------------------------|-------------------------|
 |-------------[5]-----------|-------------------------|
 |-([7])-------------[9]-[7]-|-([7])---------[5]---[7]-|
 |-------0-0-0-----0---------|-------0-0-0-7-----7-----|

|
| Gtr II
| E E E E E E E E E E E E E E E E
 
 |---5-------5--3---------3--|---2-------2-3--------3--|
 |-------3---------3---------|-------3--------3--------|
 |---------4----------4------|---------4---------4-----|
 |---------------------------|-------------------------|
 |---------------------------|-------------------------|
 |---------------------------|-------------------------|

|
| Gtr III
| +W +H.. E
 
 |---------------------------|-------------------------|
 |---------------------------|-------------------------|
 |---------------------------|-------------------------|
 |--(2)----------------------|--(2)-----------------4--|
 |--(2)----------------------|--(2)-----------------4--|
 |--(0)----------------------|--(0)-----------------2--|

PM--| PM PM--|
[+E] [E] [E] [E] [E] [E] [E] [E] [+E] [E] [E] [E] [E] [E] [E] [E]  
 
 |---------------------------|-------------------------|
 |---------------------------|-------------------------|
 |---------------------------|-------------------------|
 |-------------[5]-----------|-------------------------|
 |-([7])-------------[9]-[7]-|-([7])---------[5]---[7]-|
 |-------0-0-0-----0---------|-------0-0-0-7-----7-----|

|
| E E E E E E E E E E E E E E E E
 
 |---5-------5--3---------3--|---2-------2-3--------3--|
 |-------3---------3---------|-------3--------3--------|
 |---------4----------4------|---------4---------4-----|
 |---------------------------|-------------------------|
 |---------------------------|-------------------------|
 |---------------------------|-------------------------|

|
| +W +H.. E
 
 |---------------------------|-------------------------|
 |---------------------------|-------------------------|
 |---------------------------|----------------------4--|
 |--(4)----------------------|--(4)-----------------4--|
 |--(4)----------------------|--(4)-----------------2--|
 |--(2)----------------------|--(2)--------------------|

PM--| PM PM--|
[+E] [E] [E] [E] [E] [E] [E] [E] [+E] [E] [E] [E] [E] [E] [E] [E]  
 
 |---------------------------|-------------------------|
 |---------------------------|-------------------------|
 |---------------------------|-------------------------|
 |-------------[5]-----------|-------------------------|
 |-([7])-------------[9]-[7]-|-([7])---------[5]---[7]-|
 |-------0-0-0-----0---------|-------0-0-0-7-----7-----|

|
| E E E E E E E E E E E E E E E E
 
 |---5-------5--3---------3--|---2-------2-3--------3--|
 |-------3---------3---------|-------3--------3--------|
 |---------4----------4------|---------4---------4-----|
 |---------------------------|-------------------------|
 |---------------------------|-------------------------|
 |---------------------------|-------------------------|

|
| +H.. E +H.. E
 
 |---------------------------|-------------------------|
 |---------------------------|-------------------------|
 |--(4)-------------------2--|--(2)--------------------|
 |--(4)-------------------2--|--(2)-----------------2--|
 |--(2)-------------------0--|--(0)-----------------2--|
 |---------------------------|----------------------0--|

PM--| PM
+E E E E E E E E +Q Q E E E E
 
 |---------------------------|---------------------||
 |---------------------------|--------------------o||
 |---------------------------|---------------------||
 |-------------[5]-----------|---------------------||
 |-([7])-------------[9]-[7]-|-(7)\-------5---[7]-o||
 |-------0-0-0-----0---------|----------7---7------||

|
| E E E E E E E E W
 
 |---5-------5--3------------|---------------------||
 |-------3---------3------5--|--------------------o||
 |---------4----------4------|---------------------||
 |---------------------------|---------------------||
 |---------------------------|--------------------o||
 |---------------------------|---------------------||

|
| +H.. E W
 
 |---------------------------|---------------------||
 |---------------------------|--------------------o||
 |---------------------------|---------------------||
 |--(2)-------------------2--|---------------------||
 |--(2)-------------------2--|--------------------o||
 |--(0)-------------------0--|---------------------||

Duration Legend
 
 ---------------

W - whole; H - half; Q - quarter; E - 8th; S - 16th;
T - 32nd; X - 64th; a - acciaccatura
+ - note tied to previous; . - note dotted; .. - note double dotted
Uncapitalized letters represent notes that are staccato (1/2 duration)
Irregular groupings are notated above the duration line
Duration letters will always appear directly above the note/fret number it
represents the duration for. Duration letters with no fret number below them
represent rests. Multi-bar rests are notated in the form Wxn, where n is the
number of bars to rest for. Low melody durations appear below the staff
Tablature Legend
 
 ----------------

h - hammer-on
p - pull-off
b - bend
pb - pre-bend
r - bend release (if no number after the r, then release immediately)
/\ - slide into or out of (from/to "nowhere")
s - legato slide
S - shift slide
- natural harmonic
[n] - artificial harmonic
n(n) - tapped harmonic
~ - vibrato
tr - trill
T - tap
TP - trem. picking
PM - palm muting
\n/ - tremolo bar dip; n = amount to dip
\n - tremolo bar down
n/ - tremolo bar up
/n\ - tremolo bar inverted dip
= - hold bend; also acts as connecting device for hammers/pulls
- volume swell (louder/softer)
x - on rhythm slash represents muted slash
o - on rhythm slash represents single note slash
Misc Legend
 
 -----------

| - bar
|| - double bar
||o - repeat start
o|| - repeat end
*| - double bar (ending)
: - bar (freetime)
$ - Segno
& - Coda
Tempo markers - = BPM(8/16=s8/s16),
where s8 = swing 8ths, s16 = swing 16ths

Important: The song above is NOT stored on the Chordie server. The original song is hosted at www.guitaretab.com. Chordie works as a search engine and provides on-the-fly formatting. Chordie does not index songs against artists'/composers' will. To remove this song please click here.

Text color:
Chord color:
Chord grids: 
Font size:    
Page size: 

E
Rate #1 of 2 versions

Jango Player

Login - add to songbook

SHARE PAGE  




You need to log in to post comments