Guitar Tabs, Chords and Lyrics
Major upgrade!! After one year development the new version of Chordie is now online! Please give feedback.


Be Free  Papa Roach

Gtr I (D A D G B E) - 'Jerry - Main Guitar'
Gtr II (D A D G B E) - 'Jerry - 2nd Gutiar'
Intro - Drum fill
Q=125
[4/4] Gtr I
Wx2
 
 |--------|
 |--------|
 |--------|
 |--------|
 |--------|
 |--------|

Verse
[D5]E E Q. [F5]E E E [G5]E E H. [Bb5]E E H. [A5]E E H.
 
 |----------------|-------------|-------------|-----------|
 |----------------|-------------|-------------|-----------|
 |----------------|-------------|-------------|-----------|
 |-0-0------3-3---|-5-5---------|-8-8---------|-7-7-------|
 |-0-0------3-3---|-5-5---------|-8-8---------|-7-7-------|
 |-0-0------3-3---|-5-5---------|-8-8---------|-7-7-------|

D5 F5 G5 Bb5 A5 N.C.
E E Q. E E E E E H. E E H. E E Q. E E E
 
 |----------------|-------------|-------------|-----------------|
 |----------------|-------------|-------------|-----------------|
 |----------------|-------------|-------------|----------9-9----|
 |-0-0------3-3---|-5-5---------|-8-8---------|-7-7-------------|
 |-0-0------3-3---|-5-5---------|-8-8---------|-7-7------7-7----|
 |-0-0------3-3---|-5-5---------|-8-8---------|-7-7----------10-|

[D5]E E Q. [F5]E E E [G5]E E H. [Bb5]E E H. [A5]E E Q E E [C5] Q
 
 |----------------|-------------|-------------|-----------------|
 |----------------|-------------|-------------|-----------------|
 |----------------|-------------|-------------|-----------------|
 |-0-0------3-3---|-5-5---------|-8-8---------|-7-7----x-x-10\--|
 |-0-0------3-3---|-5-5---------|-8-8---------|-7-7----x-x-10\--|
 |-0-0------3-3---|-5-5---------|-8-8---------|-7-7----x-x-10\--|

[D5]E E Q. [F5]E E E [G5]E E H. [Bb5]E E H. [A5]E E Q E E E E
 
 |----------------|-------------|-------------|----------------|
 |----------------|-------------|-------------|----------------|
 |----------------|-------------|-------------|----------------|
 |-0-0------3-3---|-5-5---------|-8-8---------|-7-7----x-x-x-x-|
 |-0-0------3-3---|-5-5---------|-8-8---------|-7-7----x-x-x-x-|
 |-0-0------3-3---|-5-5---------|-8-8---------|-7-7----x-x-x-x-|

[D5]E E E E E [F5]E E E [G5]E E E E E E [C5] Q [Bb5]E E E E E E E E [A5]E E E E E E E E
 
 |-----------------|------------------|-----------------|-----------------|
 |-----------------|------------------|-----------------|-----------------|
 |-----------------|------------------|-----------------|-----------------|
 |-0-0-x-x-x-3-3-x-|-5-5-x-x-x-x-10\--|-8-8-8-8-8-8-8-8-|-7-7-7-7-7-7-7-7-|
 |-0-0-x-x-x-3-3-x-|-5-5-x-x-x-x-10\--|-8-8-8-8-8-8-8-8-|-7-7-7-7-7-7-7-7-|
 |-0-0-x-x-x-3-3-x-|-5-5-x-x-x-x-10\--|-8-8-8-8-8-8-8-8-|-7-7-7-7-7-7-7-7-|

Chorus
[D5] [Bb5] [C5]  
[E] [E] [E] [E] [E] [E] [E] [E] [E] [E] [E] [E] [E] [E] [E] [E]  
 
 |-------------------------|-------------------------|
 |-------------------------|-------------------------|
 |--7--7--7--7--7--3--3--3-|--5--5--5--5--5--5--5--5-|
 |--7--7--7--7--7--3--3--3-|--5--5--5--5--5--5--5--5-|
 |--5--5--5--5--5--1--1--1-|--3--3--3--3--3--3--3--3-|
 |-------------------------|-------------------------|

|
| Gtr II
| E E E E E E E E E E E E E E E E
 
 |-------------------------|-------------------------|
 |-15-15-15-15-15-15-15-15-|-13-13-13-13-------------|
 |--x--x--x--x--x--x--x--x-|--x--x--x--x-12-12-12-12-|
 |-12-12-12-12-12-12-12-12-|-10-10-10-10--x--x--x--x-|
 |-------------------------|-------------10-10-10-10-|
 |-------------------------|-------------------------|

[D5] [F5] [C5]  
[E] [E] [E] [E] [E] [E] [E] [E] [E] [E] [E] [E] [E] [E] [E] [E]  
 
 |-------------------------|-------------------------|
 |-------------------------|-------------------------|
 |--7--7--7--7--7-10-10-10-|--5--5--5--5--5--5--5--5-|
 |--7--7--7--7--7-10-10-10-|--5--5--5--5--5--5--5--5-|
 |--5--5--5--5--5--8--8--8-|--3--3--3--3--3--3--3--3-|
 |-------------------------|-------------------------|

|
| E E E E E E E E E E E E E E E E
 
 |-------------------------|-------------------------|
 |-15-15-15-15-15-18-18-18-|-17-17-17-17-13-13-13-13-|
 |--x--x--x--x--x--x--x--x-|--x--x--x--x--x--x--x--x-|
 |-12-12-12-12-12-15-15-15-|-14-14-14-14-10-10-10-10-|
 |-------------------------|-------------------------|
 |-------------------------|-------------------------|

[D5] [Bb5] [C5]  
[E] [E] [E] [E] [E] [E] [E] [E] [E] [E] [E] [E] [E] [E] [E] [E]  
 
 |-------------------------|-------------------------|
 |-------------------------|-------------------------|
 |--7--7--7--7--7--3--3--3-|--5--5--5--5--5--5--5--5-|
 |--7--7--7--7--7--3--3--3-|--5--5--5--5--5--5--5--5-|
 |--5--5--5--5--5--1--1--1-|--3--3--3--3--3--3--3--3-|
 |-------------------------|-------------------------|

|
| E E E E E E E E E E E E E E E E
 
 |-------------------------|-------------------------|
 |-15-15-15-15-15-15-15-15-|-13-13-13-13-------------|
 |--x--x--x--x--x--x--x--x-|--x--x--x--x-12-12-12-12-|
 |-12-12-12-12-12-12-12-12-|-10-10-10-10--x--x--x--x-|
 |-------------------------|-------------10-10-10-10-|
 |-------------------------|-------------------------|

[Bb5] [A5]  
[E] [E] [E] [E] [E] [E] [E] [E] [E] [E] [E] [E] [E] [E] [E] [E]  
 
 |-------------------------|-------------------------|
 |-------------------------|-------------------------|
 |-------------------------|-------------------------|
 |--8--8--8--8--8--8--8--8-|--7--7--7--7--7--7--7--7-|
 |--8--8--8--8--8--8--8--8-|--7--7--7--7--7--7--7--7-|
 |--8--8--8--8--8--8--8--8-|--7--7--7--7--7--7--7--7-|

|
| E E E E E E E E E E E E E E E E
 
 |-------------------------|-------------------------|
 |-------------------------|-------------------------|
 |-15-15-15-15-15-15-15-15-|-14-14-14-14-14-14-14-14-|
 |--x--x--x--x--x--x--x--x-|--x--x--x--x--x--x--x--x-|
 |-13-13-13-13-13-13-13-13-|-12-12-12-12-12-12-12-12-|
 |-------------------------|-------------------------|

Verse
[D5]E E Q. [F5]E E E [G5]E E H. [Bb5]E E H. [A5]E E Q E E [C5] Q
 
 |----------------|-------------|-------------|-----------------|
 |----------------|-------------|-------------|-----------------|
 |----------------|-------------|-------------|-----------------|
 |-0-0------3-3---|-5-5---------|-8-8---------|-7-7----x-x-10\--|
 |-0-0------3-3---|-5-5---------|-8-8---------|-7-7----x-x-10\--|
 |-0-0------3-3---|-5-5---------|-8-8---------|-7-7----x-x-10\--|

D5 F5 G5 Bb5 A5 N.C.
E E Q. E E E E E H. E E H. E E Q. E E E
 
 |----------------|-------------|-------------|-----------------|
 |----------------|-------------|-------------|-----------------|
 |----------------|-------------|-------------|----------9-9----|
 |-0-0------3-3---|-5-5---------|-8-8---------|-7-7-------------|
 |-0-0------3-3---|-5-5---------|-8-8---------|-7-7------7-7----|
 |-0-0------3-3---|-5-5---------|-8-8---------|-7-7----------10-|

[D5]E E Q. [F5]E E E [G5]E E H. [Bb5]E E H. [A5]E E Q E E [C5] Q
 
 |----------------|-------------|-------------|-----------------|
 |----------------|-------------|-------------|-----------------|
 |----------------|-------------|-------------|-----------------|
 |-0-0------3-3---|-5-5---------|-8-8---------|-7-7----x-x-10\--|
 |-0-0------3-3---|-5-5---------|-8-8---------|-7-7----x-x-10\--|
 |-0-0------3-3---|-5-5---------|-8-8---------|-7-7----x-x-10\--|

[D5]E E Q. [F5]E E E [G5]E E H. [Bb5]E E H. [A5]E E Q [C5] E E Q
 
 |----------------|-------------|-------------|------------------|
 |----------------|-------------|-------------|------------------|
 |----------------|-------------|-------------|------------------|
 |-0-0------3-3---|-5-5---------|-8-8---------|-7-7----10-10-10--|
 |-0-0------3-3---|-5-5---------|-8-8---------|-7-7----10-10-10--|
 |-0-0------3-3---|-5-5---------|-8-8---------|-7-7----10-10-10--|

[D5]E E E E E [F5]E E E [G5]E E E E E E [C5] Q [Bb5]E E E E E E E E [A5]E E E E E E E E
 
 |-----------------|------------------|-----------------|-----------------|
 |-----------------|------------------|-----------------|-----------------|
 |-----------------|------------------|-----------------|-----------------|
 |-0-0-x-x-x-3-3-x-|-5-5-x-x-x-x-10\--|-8-8-8-8-8-8-8-8-|-7-7-7-7-7-7-7-7-|
 |-0-0-x-x-x-3-3-x-|-5-5-x-x-x-x-10\--|-8-8-8-8-8-8-8-8-|-7-7-7-7-7-7-7-7-|
 |-0-0-x-x-x-3-3-x-|-5-5-x-x-x-x-10\--|-8-8-8-8-8-8-8-8-|-7-7-7-7-7-7-7-7-|

Chorus
[D5] [Bb5] [C5]  
[E] [E] [E] [E] [E] [E] [E] [E] [E] [E] [E] [E] [E] [E] [E] [E]  
 
 ||--------------------------|-------------------------|
 ||o-------------------------|-------------------------|
 ||---7--7--7--7--7--3--3--3-|--5--5--5--5--5--5--5--5-|
 ||---7--7--7--7--7--3--3--3-|--5--5--5--5--5--5--5--5-|
 ||o--5--5--5--5--5--1--1--1-|--3--3--3--3--3--3--3--3-|
 ||--------------------------|-------------------------|

|
| Gtr II
| E E E E E E E E E E E E E E E E
 
 ||--------------------------|-------------------------|
 ||o-15-15-15-15-15-15-15-15-|-13-13-13-13-------------|
 ||---x--x--x--x--x--x--x--x-|--x--x--x--x-12-12-12-12-|
 ||--12-12-12-12-12-12-12-12-|-10-10-10-10--x--x--x--x-|
 ||o-------------------------|-------------10-10-10-10-|
 ||--------------------------|-------------------------|

[D5] [F5] [C5]  
[E] [E] [E] [E] [E] [E] [E] [E] [E] [E] [E] [E] [E] [E] [E] [E]  
 
 |-------------------------|--------------------------|
 |-------------------------|--------------------------|
 |--7--7--7--7--7-10-10-10-|--5--5--5--5--5--5--5--5--|
 |--7--7--7--7--7-10-10-10-|--5--5--5--5--5--5--5--5--|
 |--5--5--5--5--5--8--8--8-|--3--3--3--3--3--3--3--3--|
 |-------------------------|--------------------------|

|
| E E E E E E E E E E E E E E E E
 
 |-------------------------|--------------------------|
 |-15-15-15-15-15-18-18-18-|-17-17-17-17-13-13-13-13--|
 |--x--x--x--x--x--x--x--x-|--x--x--x--x--x--x--x--x--|
 |-12-12-12-12-12-15-15-15-|-14-14-14-14-10-10-10-10--|
 |-------------------------|--------------------------|
 |-------------------------|--------------------------|

[D5] [Bb5] [C5]  
[E] [E] [E] [E] [E] [E] [E] [E] [E] [E] [E] [E] [E] [E] [E] [E]  
 
 |-------------------------|-------------------------|
 |-------------------------|-------------------------|
 |--7--7--7--7--7--3--3--3-|--5--5--5--5--5--5--5--5-|
 |--7--7--7--7--7--3--3--3-|--5--5--5--5--5--5--5--5-|
 |--5--5--5--5--5--1--1--1-|--3--3--3--3--3--3--3--3-|
 |-------------------------|-------------------------|

|
| E E E E E E E E E E E E E E E E
 
 |-------------------------|-------------------------|
 |-15-15-15-15-15-15-15-15-|-13-13-13-13-------------|
 |--x--x--x--x--x--x--x--x-|--x--x--x--x-12-12-12-12-|
 |-12-12-12-12-12-12-12-12-|-10-10-10-10--x--x--x--x-|
 |-------------------------|-------------10-10-10-10-|
 |-------------------------|-------------------------|

[Bb5] [A5]  
[E] [E] [E] [E] [E] [E] [E] [E] [E] [E] [E] [E] [E] [E] [E] [E]  
 
 |-------------------------|--------------------------||
 |-------------------------|-------------------------o||
 |-------------------------|--------------------------||
 |--8--8--8--8--8--8--8--8-|--7--7--7--7--7--7--7--7--||
 |--8--8--8--8--8--8--8--8-|--7--7--7--7--7--7--7--7-o||
 |--8--8--8--8--8--8--8--8-|--7--7--7--7--7--7--7--7--||

|
| E E E E E E E E E E E E E E E E
 
 |-------------------------|--------------------------||
 |-------------------------|-------------------------o||
 |-15-15-15-15-15-15-15-15-|-14-14-14-14-14-14-14-14--||
 |--x--x--x--x--x--x--x--x-|--x--x--x--x--x--x--x--x--||
 |-13-13-13-13-13-13-13-13-|-12-12-12-12-12-12-12-12-o||
 |-------------------------|--------------------------||

Bridge
[D5]E E E [Bb5]E E E [A5]Q +W [D5]E E E [Bb5]E E E [A5]Q +W
 
 |----------------|------------|----------------|--------|
 |----------------|------------|----------------|--------|
 |----------------|------------|----------------|--------|
 |-0-0-0-8-8-8-7--|-(7)--------|-0-0-0-8-8-8-7--|-(7)----|
 |-0-0-0-8-8-8-7--|-(7)--------|-0-0-0-8-8-8-7--|-(7)----|
 |-0-0-0-8-8-8-7--|-(7)--------|-0-0-0-8-8-8-7--|-(7)----|

[D5]E E E [Bb5]E E E [A5]Q +W [D5]E E E [Bb5]E E E [A5]Q +H E E E E
 
 |----------------|------------|----------------|----------------|
 |----------------|------------|----------------|----------------|
 |----------------|------------|----------------|----------------|
 |-0-0-0-8-8-8-7--|-(7)--------|-0-0-0-8-8-8-7--|-(7)----7-7-7-7-|
 |-0-0-0-8-8-8-7--|-(7)--------|-0-0-0-8-8-8-7--|-(7)----7-7-7-7-|
 |-0-0-0-8-8-8-7--|-(7)--------|-0-0-0-8-8-8-7--|-(7)----7-7-7-7-|

W W
 
 |----------|-------------|
 |----------|-------------|
 |----------|-------------|
 |----------|-x/----------|
 |----------|-x/----------|
 |----------|-x/----------|

|
| Gtr II
| W H H
 
 |----------|-------------|
 |----------|-------------|
 |----------|-------------|
 |----------|-------x/----|
 |----------|-------x/----|
 |----------|-------x/----|

Chorus
[D5] [Bb5] [C5]  
[E] [E] [E] [E] [E] [E] [E] [E] [E] [E] [E] [E] [E] [E] [E] [E]  
 
 ||--------------------------|-------------------------|
 ||o-------------------------|-------------------------|
 ||---7--7--7--7--7--3--3--3-|--5--5--5--5--5--5--5--5-|
 ||---7--7--7--7--7--3--3--3-|--5--5--5--5--5--5--5--5-|
 ||o--5--5--5--5--5--1--1--1-|--3--3--3--3--3--3--3--3-|
 ||--------------------------|-------------------------|

|
| Gtr II
| E E E E E E E E E E E E E E E E
 
 ||--------------------------|-------------------------|
 ||o-15-15-15-15-15-15-15-15-|-13-13-13-13-------------|
 ||---x--x--x--x--x--x--x--x-|--x--x--x--x-12-12-12-12-|
 ||--12-12-12-12-12-12-12-12-|-10-10-10-10--x--x--x--x-|
 ||o-------------------------|-------------10-10-10-10-|
 ||--------------------------|-------------------------|

[D5] [F5] [C5]  
[E] [E] [E] [E] [E] [E] [E] [E] [E] [E] [E] [E] [E] [E] [E] [E]  
 
 |-------------------------|--------------------------|
 |-------------------------|--------------------------|
 |--7--7--7--7--7-10-10-10-|--5--5--5--5--5--5--5--5--|
 |--7--7--7--7--7-10-10-10-|--5--5--5--5--5--5--5--5--|
 |--5--5--5--5--5--8--8--8-|--3--3--3--3--3--3--3--3--|
 |-------------------------|--------------------------|

|
| E E E E E E E E E E E E E E E E
 
 |-------------------------|--------------------------|
 |-15-15-15-15-15-18-18-18-|-17-17-17-17-13-13-13-13--|
 |--x--x--x--x--x--x--x--x-|--x--x--x--x--x--x--x--x--|
 |-12-12-12-12-12-15-15-15-|-14-14-14-14-10-10-10-10--|
 |-------------------------|--------------------------|
 |-------------------------|--------------------------|

[D5] [Bb5] [C5]  
[E] [E] [E] [E] [E] [E] [E] [E] [E] [E] [E] [E] [E] [E] [E] [E]  
 
 |-------------------------|-------------------------|
 |-------------------------|-------------------------|
 |--7--7--7--7--7--3--3--3-|--5--5--5--5--5--5--5--5-|
 |--7--7--7--7--7--3--3--3-|--5--5--5--5--5--5--5--5-|
 |--5--5--5--5--5--1--1--1-|--3--3--3--3--3--3--3--3-|
 |-------------------------|-------------------------|

|
| E E E E E E E E E E E E E E E E
 
 |-------------------------|-------------------------|
 |-15-15-15-15-15-15-15-15-|-13-13-13-13-------------|
 |--x--x--x--x--x--x--x--x-|--x--x--x--x-12-12-12-12-|
 |-12-12-12-12-12-12-12-12-|-10-10-10-10--x--x--x--x-|
 |-------------------------|-------------10-10-10-10-|
 |-------------------------|-------------------------|

[Bb5] E E E E E E E E [A5] E E E E E E E E 4x
 
 |-------------------------|--------------------------||
 |-------------------------|-------------------------o||
 |-------------------------|--------------------------||
 |--8--8--8--8--8--8--8--8-|--7--7--7--7--7--7--7--7--||
 |--8--8--8--8--8--8--8--8-|--7--7--7--7--7--7--7--7-o||
 |--8--8--8--8--8--8--8--8-|--7--7--7--7--7--7--7--7--||

|
| E E E E E E E E E E E E E E E E 4x
 
 |-------------------------|--------------------------||
 |-------------------------|-------------------------o||
 |-15-15-15-15-15-15-15-15-|-14-14-14-14-14-14-14-14--||
 |--x--x--x--x--x--x--x--x-|--x--x--x--x--x--x--x--x--||
 |-13-13-13-13-13-13-13-13-|-12-12-12-12-12-12-12-12-o||
 |-------------------------|--------------------------||

[D5]E E E [Bb5]E E E [C5] Q +W [D5] E E E [Bb5] E E E [A5]Q +W
 
 |-----------------|-------------|--------------------|--------*|
 |-----------------|-------------|--------------------|--------*|
 |-----------------|-------------|--------------------|--------*|
 |-0-0-0-8-8-8-10--|-(10)--------|--0--0-0--8--8-8-7--|-(7)----*|
 |-0-0-0-8-8-8-10--|-(10)--------|--0--0-0--8--8-8-7--|-(7)----*|
 |-0-0-0-8-8-8-10--|-(10)--------|--0--0-0--8--8-8-7--|-(7)----*|

|
| Gtr II
| W W Q. Q. Q +W
 
 |-----------------|-------------|--------------------|--------*|
 |-----------------|-------------|--------------------|--------*|
 |-----------------|-------------|-10------12------9--|-(9)----*|
 |-----------------|-------------|--------------------|--------*|
 |-----------------|-------------|--------------------|--------*|
 |-----------------|-------------|--------------------|--------*|
 --------------------------------------------------------------------------------

Duration Legend
 
 ---------------
 W - whole; H - half; Q - quarter; E - 8th; S - 16th; T - 32nd; X - 64th; a - acciaccatura

+ - note tied to previous; . - note dotted; .. - note double dotted
Uncapitalized letters represent notes that are staccato (1/2 duration)
Irregular groupings are notated above the duration line
Duration letters will always appear directly above the note/fret number it represents the
duration for. Duration letters with no fret number below them represent rests. Multi-
bar rests are notated in the form Wxn, where n is the number of bars to rest for. Low
melody durations appear below the staff
Tablature Legend
 
 ----------------

h - hammer-on
p - pull-off
b - bend
pb - pre-bend
r - bend release (if no number after the r, then release immediately)
/\ - slide into or out of (from/to "nowhere")
s - legato slide
S - shift slide
- natural harmonic
(n) - artificial harmonic
n(n) - tapped harmonic
~ - vibrato
tr - trill
T - tap
TP - trem. picking
PM - palm muting
\n/ - tremolo bar dip; n = amount to dip
\n - tremolo bar down
n/ - tremolo bar up
/n\ - tremolo bar inverted dip
= - hold bend; also acts as connecting device for hammers/pulls
- volume swell (louder/softer)
x - on rhythm slash represents muted slash
o - on rhythm slash represents single note slash
Misc Legend
 
 -----------

| - bar
|| - double bar
||o - repeat start
o|| - repeat end
*| - double bar (ending)
: - bar (freetime)
$ - Segno
& - Coda
Tempo markers - = BPM(8/16=s8/s16), where s8 = swing 8ths, s16 = swing 16ths

Important: The song above is NOT stored on the Chordie server. The original song is hosted at www.guitaretab.com. Chordie works as a search engine and provides on-the-fly formatting. Chordie does not index songs against artists'/composers' will. To remove this song please click here.

Text color:
Chord color:
Chord grids: 
Font size:    
Page size: 

A5 Bb5 C5 D5 E F5 G5
Rate #1 of 2 versions

Jango Player

Login - add to songbook

SHARE PAGE  




You need to log in to post comments