Guitar Tabs, Chords and Lyrics
Server problems seems to be fixed. Chordie has been experiencing problems with songs disappearing. These issues now seems to be fixed, but still verifying the fix. If you find anything strange, please email admin@chordie.com.


Dark Days  Parkway Drive

[A#-F-A#-D#-G-C]  
*= PALM MUTE
TABBED BY-andherembrace
www.facebook.com/andherembrace
INTRO
0:08
 
 ---------------------------------------------------------------------------|
 ---------------------------------------------------------------------------|
 ----------------------------------9-------------------------------------9--|
 ----7-8------8-10-------10-12-12---10--------7-8------8-10-----10-12-12--10|
 --------------------------------12------------------------------------12---|
 0-7------0-8-------0-10-----------------0-7------0-8------0-10-------------|

* * * * * * * * * * * * * * * * * *
0:16
GT1
 
 ---------------------------------------------------------------------------|
 ---------------------------------------------------------------------------|
 ----------------------------------9-------------------------------------9--|
 ----7-8------8-10-------10-12-12---10--------7-8------8-10-----10-12-12--10|
 --------------------------------12------------------------------------12---|
 0-7------0-8-------0-10-----------------0-7------0-8------0-10-------------|

* * * * * * * * * * * * * * * * * *
GT2
 
 --------------------------------------------------------------------------|
 --------------------------------------------------------------------------|
 --------------------------------------------------------------------------|
 --------------------------------------------------------------------------|
 0--------------------------------------0--0--0--0--0--0--0--0--0--0--0--0-|
 0--------------------------------------0--0--0--0--0--0--0--0--0--0--0--0-|

* * * * * * * * * * * *
0:24
GT1+2
 
 ------------------------------------------------------------------------|
 ------------------------------------------------------------------------|
 -----------------------------------9------------------------------------|
 -----7-8------8-10-------10-12-12---10-------7-8------8-10-------10-12--|
 ---------------------------------12-------------------------------------|
 -0-7------0-8-------0-10-----------------0-7------0-8--------0-10-------|

0:32
GT1 L HARMONY
 
 ------------------------------------------|
 ------------------------------------------|
 ----------------------------------9-------|
 -----7-8-----8-10------10-12-12-----10----|
 -------------------------------12---------|
 -0-7-----0-8------0-10--------------------|

* * * * * * * * *
GT2 R HARMONY
 
 ------------------------------------------|
 ------------------------------------------|
 -----------------------------14--12-------|
 -------------------------------15--14-----|
 -0-0-----0-0------0-0---------------------|
 -0-0-----0-0------0-0---------------------|

* * * * * *
GT1 L HARMONY
 
 ------------------------------------------|
 ------------------------------------------|
 ----------------------------------9-------|
 -----7-8-----8-10------10-12-12-----10----|
 -------------------------------12---------|
 -0-7-----0-8------0-10--------------------|

* * * * * * * * *
GT2 R HARMONY
 
 ------------------------------------------|
 ------------------------------------------|
 -----------------------------14--12-------|
 -------------------------------15--14-----|
 -0-0-----0-0------0-0---------------------|
 -0-0-----0-0------0-0---------------------|

* * * * * *
GT1 L HARMONY
 
 ------------------------------------------|
 ------------------------------------------|
 ----------------------------------9-------|
 -----7-8-----8-10------10-12-12-----10----|
 -------------------------------12---------|
 -0-7-----0-8------0-10--------------------|

* * * * * * * * *
GT2 R HARMONY
 
 ------------------------------------------|
 ------------------------------------------|
 -----------------------------14--12-------|
 -------------------------------15--14-----|
 -0-0-----0-0------0-0---------------------|
 -0-0-----0-0------0-0---------------------|

* * * * * *
GT1 L HARMONY
 
 ------------------------------------------|
 ------------------------------------------|
 ----------------------------------9-------|
 -----7-8-----8-10------10-12-12-----10----|
 -------------------------------12---------|
 -0-7-----0-8------0-10--------------------|

* * * * * * * * *
GT2 R HARMONY
 
 ------------------------------------------|
 ------------------------------------------|
 -----------------------------14--12-------|
 -------------------------------15--14-----|
 -0-0-----0-0------0-0---------------------|
 -0-0-----0-0------0-0---------------------|

* * * * * *
0:48
INTERLUDE
 
 ---------------------------------------------|
 ---------------------------------------------|
 ------------------------14-14-14-14-14-------|
 ------------------------12-12-12-12-12-------|
 -8----------------------12-12-12-12-12\------|
 -8-------------------------------------------|

0:55
 
 -------------------------------------------------------|
 -------------------------------------------------------|
 -------------------------------------------------------|
 -------5-7-------5-8------------------------5-7-5------|
 -5-7-8-----5-7-8------5-7-8-----------7-7-8-------8-7--|
 -----------------------------00000-00------------------|

* * * * * * * * * * ***** **
 
 -------------------------------------------------------|
 -------------------------------------------------------|
 -------------------------------------------------------|
 -------5-7-------5-8------------------------5-7-5------|
 -5-7-8-----5-7-8------5-7-8-----------7-7-8-------8-7--|
 -----------------------------00000-00------------------|

* * * * * * * * * * ***** **
 
 -------------------------------------------------------|
 -------------------------------------------------------|
 -------------------------------------------------------|
 -------5-7-------5-8------------------------5-7-5------|
 -5-7-8-----5-7-8------5-7-8-----------7-7-8-------8-7--|
 -----------------------------00000-00------------------|

* * * * * * * * * * ***** **
 
 ----------------------------------------------|
 ----------------------------------------------|
 ----------------------------------------14----|
 -------5-7-------5-8--------------------12----|
 -5-7-8-----5-7-8------5-7-8-------------12\---|
 -----------------------------00000-00---------|

* * * * * * * * * * ***** **
1:10
GT1
 
 -------------------------------------|
 -------------------------------------|
 -------------------------------------|
 -------5-7-------5-8-------tr~~~~~~--|
 -5-7-8-----5-7-8------7-8--78--------|
 -------------------------------------|

* * * * * * * * * *
GT2
 
 -----------------------------------------------|
 -----------------------------------------------|
 -----------------------------------------------|
 -----------------------------------------------|
 -0--0-----8--8-----10--10----------------------|
 -0--0-----8--8-----10--10-------66-3-55-2------|

* * * * * * ** * ** *
GT1
 
 -------------------------------------|
 -------------------------------------|
 -------------------------------------|
 -------5-7-------5-8-------tr~~~~~~--|
 -5-7-8-----5-7-8------7-8--78--------|
 -------------------------------------|

* * * * * * * * * *
GT2
 
 --------------------------------|
 --------------------------------|
 --------------------------------|
 --------------------------------|
 -0--0-----8--8-----10--10-------|
 -0--0-----8--8-----10--10-------|

* * * * * *
GT1
 
 -------------------------------------|
 -------------------------------------|
 -------------------------------------|
 -------5-7-------5-8-------tr~~~~~~--|
 -5-7-8-----5-7-8------7-8--78--------|
 -------------------------------------|

* * * * * * * * * *
GT2
 
 -----------------------------------------------|
 -----------------------------------------------|
 -----------------------------------------------|
 -----------------------------------------------|
 -0--0-----8--8-----10--10----------------------|
 -0--0-----8--8-----10--10-------66-3-55-2------|

* * * * * * ** * ** *
GT1
 
 -------------------------------------|
 -------------------------------------|
 -------------------------------------|
 -------5-7-------5-8-------tr~~~~~~--|
 -5-7-8-----5-7-8------7-8--78--------|
 -------------------------------------|

* * * * * * * * * *
GT2
 
 --------------------------------------|
 --------------------------------------|
 --------------------------------------|
 ---------------------------------\----|
 -0--0-----8--8-----10--10---------\---|
 -0--0-----8--8-----10--10-------PS-\--|

* * * * * *
1:25
 
 -------------------------------------------------------|
 -------------------------------------------------------|
 -------------------------------------------------------|
 -------------------------------------------------------|
 -------------------------------------------------------|
 -5-7-8-8-0--5-7-8-8-0--0000-5-7-8-8-0--5-7-8-8-0--0000-|

**** ****
 
 ----------------------------------------|
 ----------------------------------------|
 ----------------------------------------|
 ----------------------------------------|
 -00---00----00-0-0-0---0-00---0000-00---|
 -00---00----00-0-0-0---0-00---0000-00---|

** ** ** * * * * ** **** **
 
 -------------------------------------------------------|
 -------------------------------------------------------|
 -------------------------------------------------------|
 -------------------------------------------------------|
 -------------------------------------------------------|
 -5-7-8-8-0--5-7-8-8-0--0000-5-7-8-8-0--5-7-8-8-0--0000-|

**** ****
 
 ----------------------------------------|
 ----------------------------------------|
 ----------------------------------------|
 ----------------------------------------|
 -00---00----00-0-0-0---0-00------5----7-|
 -00---00----00-0-0-0---0-00---00-5-00-7-|

** ** ** * * * * ** ** **
1:40
 
 ----------------------------------------|
 ----------------------------------------|
 ----------------------------------------|
 ----------------------------------------|
 -8-------------5---------7----3---------|
 -8-------------5---------7----3---------|
 ----------------------------------------|
 ----------------------------------------|
 ----------------------------------------|
 ----------------------------------------|
 -00---00----00-0-0-0---0-00---0000-00---|
 -00---00----00-0-0-0---0-00---0000-00---|

** ** ** * * * * ** **** **
 
 -----------------------------------------|
 -----------------------------------------|
 --------------------------14---10--------|
 --------------------------12---8---------|
 -8-------------5----------12---8---------|
 -8-------------5-------------------------|
 ----------------------------------------|
 ----------------------------------------|
 ----------------------------------------|
 ----------------------------------------|
 -00---00----00-0-0-0---0-00---0000-00---|
 -00---00----00-0-0-0---0-00---0000-00---|

** ** ** * * * * ** **** **
 
 ---------------------------------------------|
 ---------------------------------------------|
 ------------------------14-14-14-14-14-------|
 ------------------------12-12-12-12-12-------|
 -8----------------------12-12-12-12-12\------|
 -8-------------------------------------------|

1:59
 
 -------------------------------------------------------|
 -------------------------------------------------------|
 -------------------------------------------------------|
 -------5-7-------5-8------------------------5-7-5------|
 -5-7-8-----5-7-8------5-7-8-----------7-7-8-------8-7--|
 -----------------------------00000-00------------------|

* * * * * * * * * * ***** **
 
 -------------------------------------------------------|
 -------------------------------------------------------|
 -------------------------------------------------------|
 -------5-7-------5-8------------------------5-7-5------|
 -5-7-8-----5-7-8------5-7-8-----------7-7-8-------8-7--|
 -----------------------------00000-00------------------|

* * * * * * * * * * ***** **
 
 -------------------------------------------------------|
 -------------------------------------------------------|
 -------------------------------------------------------|
 -------5-7-------5-8------------------------5-7-5------|
 -5-7-8-----5-7-8------5-7-8-----------7-7-8-------8-7--|
 -----------------------------00000-00------------------|

* * * * * * * * * * ***** **
 
 ----------------------------------------------|
 ----------------------------------------------|
 ----------------------------------------------|
 -------5-7-------5-8--------------------14----|
 -5-7-8-----5-7-8------5-7-8-------------12\---|
 -----------------------------00000-00---------

* * * * * * * * * * ***** **
GT1
 
 -------------------------------------|
 -------------------------------------|
 -------------------------------------|
 -------5-7-------5-8-------tr~~~~~~--|
 -5-7-8-----5-7-8------7-8--78--------|
 -------------------------------------|

* * * * * * * * * *
GT2
 
 -----------------------------------------------|
 -----------------------------------------------|
 -----------------------------------------------|
 -----------------------------------------------|
 -0--0-----8--8-----10--10----------------------|
 -0--0-----8--8-----10--10-------66-3-55-2------|

* * * * * * ** * ** *
GT1
 
 -------------------------------------|
 -------------------------------------|
 -------------------------------------|
 -------5-7-------5-8-------tr~~~~~~--|
 -5-7-8-----5-7-8------7-8--78--------|
 -------------------------------------|

* * * * * * * * * *
GT2
 
 --------------------------------|
 --------------------------------|
 --------------------------------|
 --------------------------------|
 -0--0-----8--8-----10--10-------|
 -0--0-----8--8-----10--10-------|

* * * * * *
GT1
 
 -------------------------------------|
 -------------------------------------|
 -------------------------------------|
 -------5-7-------5-8-------tr~~~~~~--|
 -5-7-8-----5-7-8------7-8--78--------|
 -------------------------------------|

* * * * * * * * * *
GT2
 
 -----------------------------------------------|
 -----------------------------------------------|
 -----------------------------------------------|
 -----------------------------------------------|
 -0--0-----8--8-----10--10----------------------|
 -0--0-----8--8-----10--10-------66-3-55-2------|

* * * * * * ** * ** *
GT1
 
 -------------------------------------|
 -------------------------------------|
 -------------------------------------|
 -------5-7-------5-8-------tr~~~~~~--|
 -5-7-8-----5-7-8------7-8--78--------|
 -------------------------------------|

* * * * * * * * * *
GT2
 
 --------------------------------------|
 --------------------------------------|
 --------------------------------------|
 ---------------------------------\----|
 -0--0-----8--8-----10--10---------\---|
 -0--0-----8--8-----10--10-------PS-\--|

* * * * * *
 
 ----------------------------------------|
 ----------------------------------------|
 ----------------------------------------|
 ----------------------------------------|
 -8-------------5---------7----3---------|
 -8-------------5---------7----3---------|
 ----------------------------------------|
 ----------------------------------------|
 ----------------------------------------|
 ----------------------------------------|
 -00---00----00-0-0-0---0-00---0000-00---|
 -00---00----00-0-0-0---0-00---0000-00---|

** ** ** * * * * ** **** **
R SIDE L PLAYS PREVIOUS
 
 ----------------------------------------|
 ----------------------------------------|
 ----------------------------------------|
 --------------------------14---10-------|
 -8-------------5----------12---8--------|
 -8-------------5------------------------|
 ----------------------------------------|
 ----------------------------------------|
 ----------------------------------------|
 ----------------------------------------|
 -00---00----00-0-0-0---0-00------5----7-|
 -00---00----00-0-0-0---0-00---00-5-00-7-|

** ** ** * * * * ** ** **
2:44
GT1
 
 ----------------------------------------|
 -----GRAD BEND---^----------------------|
 --12-----------12-10-12~~~--------------|
 ----------------------------------------|
 ----------------------------------------|
 ----------------------------------------|

GT2
 
 ----------------------------------------|
 ----------------------------------------|
 ----------------------------------------|
 ----------------------------------------|
 -8-------------5---------7----3---------|
 -8-------------5---------7----3---------|

GT1
 
 -15--17--13--15--17--13--15--17-------|
 ---15--15--15--15--15--15--15--15-----|
 --------------------------------------|
 --------------------------------------|
 --------------------------------------|
 --------------------------------------|

GT2
 
 ----------------------------------------|
 ----------------------------------------|
 ----------------------------------------|
 ----------------------------------------|
 -00---00----00-0-0-0---0-00---0000-00---|
 -00---00----00-0-0-0---0-00---0000-00---|

** ** ** * * * * ** **** **
GT1 ) (
 
 -/18--17-15-20~~~--20--------------------|
 -----------------------------------------|
 -----------------------------------------|
 -----------------------------------------|
 -----------------------------------------|
 -----------------------------------------|

GT2
 
 -----------------------------------------|
 -----------------------------------------|
 --------------------------14---10--------|
 --------------------------12---8---------|
 -8-------------5----------12---8---------|
 -8-------------5-------------------------|

GT1
 
 -15--17--13--15--17--13--15--17-------|
 ---15--15--15--15--15--15--15--15-----|
 --------------------------------------|
 --------------------------------------|
 --------------------------------------|
 --------------------------------------|

GT2
 
 --------------------------------------|
 --------------------------------------|
 --------------------------------------|
 --------------------------------------|
 -00---00----00-0-0-0---0-00---0000-00-|
 -00---00----00-0-0-0---0-00---0000-00-|

** ** ** * * * * ** **** **
2:59
 
 -----------------------------------|
 -----------------------------------|
 -----------------------------------|
 -----------------------------------|
 -----------------------------------|
 -0-0-0-0-0-0-0-0-0-0-0-0-0-111111--|

* * * * * * * * * * * * * ******
 
 -----------------------------------|
 -----------------------------------|
 -----------------------------------|
 -----------------------------------|
 -----------------------------------|
 -0-0-0-0-0-0-0-0-0-0-0-0-0-111111--|

* * * * * * * * * * * * * ******
3:07
GT1
 
 -----------------------------------|
 -----------------------------------|
 -----------------------------------|
 -----7-8---------------------------|
 -----------------------------------|
 -0-7-------------------------------|

* * *
GT2
 
 -----------------------------------|
 -----------------------------------|
 -----------------------------------|
 -----------------------------------|
 -----------------------------------|
 -0-0-0-0-0-0-0-0-0-0-0-0-0-111111--|

* * * * * * * * * * * * * ******
GT1
 
 ------------------------------------|
 ------------------------------------|
 ---------------------------H--------|
 -----7-7----~---~----~-----5--PH----|
 ------------------------------5-PH--|
 -0-7----------------------------5---|

* * *
GT2
 
 -----------------------------------|
 -----------------------------------|
 -----------------------------------|
 -----------------------------------|
 -----------------------------------|
 -0-0-0-0-0-0-0-0-0-0-0-0-0-111111--|

* * * * * * * * * * * * * ******
GT1
 
 -----------------------------------|
 -----------------------------------|
 -----------------------------------|
 -----7--8--------------------------|
 -----------------------------------|
 -0-7-------------------------------|

* * *
GT2
 
 -----------------------------------|
 -----------------------------------|
 -----------------------------------|
 -----------------------------------|
 -----------------------------------|
 -0-0-0-0-0-0-0-0-0-0-0-0-0-111111--|

* * * * * * * * * * * * * ******
GT1
 
 ------------------------------------|
 ------------------------------------|
 ---------------------------H--------|
 -----7-7----~---~----~-----5--PH----|
 ------------------------------5-\---|
 -0-7--------------------------------|

* * *
GT2
 
 -----------------------------------|
 -----------------------------------|
 -----------------------------------|
 -----------------------------------|
 -----------------------------------|
 -0-0-0-0-0-0-0-0-0-0-0-0-0-111111--|

* * * * * * * * * * * * * ******
GT1+2
 
 --------------------------------------------------------------------|
 --------------------------------------------------------------------|
 ------------------------------------9-------------------------------|
 -----7-8------8-10-------10-12-12----10-------7-8------8-10---------|
 ---------------------------------12---------------------------------|
 -0-7------0-8-------0-10-----------------0-7------0-8--------0-|----|
 --------------------------|
 --------------------------|
 ---------------------V-h--|
 --------------------------|
 -0-0----0-0----0-0--------|
 -0-0----0-0----0-0--------|

* * * * * *
L
 
 -------------------------------------------------------------|
 -------------------------------------------------------------|
 ------------------------------9------------------------------|
 -------------------------12----10----------------------------|
 ---------------------------12--------------------------------|
 -0-0-000-0-0-000-0-0-000----------0-0-000-0-0-000---8---10---|

* * *** * * *** * * *** * * *** * * ***
R
 
 -------------------------------------------------------------|
 -------------------------------------------------------------|
 --------------------------14--12-----------------------------|
 ----------------------------15--14---------------------------|
 -------------------------------------------------------------|
 -0-0-000-0-0-000-0-0-000----------0-0-000-0-0-000--12---14---|

* * *** * * *** * * *** * * *** * * ***
[B]  
 
 ---------------------------------------|
 ---------------------------------------|
 ---------------------------------------|
 ---------------------------------------|
 ---------------------------------------|
 -0-0-0000-0-0-0000-0-0-0000-0000-0000--|

* * **** * * **** * * **** **** ****
 
 ---------------------------------------|
 ---------------------------------------|
 ---------------------------------------|
 ---------------------------------------|
 ---------------------------------------|
 -0-0-0000-0-0-0000-0-0-0000-0000-0000--|

* * **** * * **** * * **** **** ****
 
 ---------------------------------------|
 ---------------------------------------|
 ---------------------------------------|
 ---------------------------------------|
 ---------------------------------------|
 -0-0-0000-0-0-0000-0-0-0000-0000-0000--|

* * **** * * **** * * **** **** ****
 
 ------------------|
 ------------------|
 ------------------|
 ------------------|
 -0-0---0-0---0-0--|
 -0-0---0-0---0-0--|

* * * * * *

Important: The song above is NOT stored on the Chordie server. The original song is hosted at www.guitaretab.com. Chordie works as a search engine and provides on-the-fly formatting. Chordie does not index songs against artists'/composers' will. To remove this song please click here.

Text color:
Chord color:
Chord grids: 
Font size:    
Page size: 

B
Rate #1 of 3 versions

Jango Player

Login - add to songbook

SHARE PAGE  




You need to log in to post comments