Guitar Tabs, Chords and Lyrics
Server problems seems to be fixed. Chordie has been experiencing problems with songs disappearing. These issues now seems to be fixed, but still verifying the fix. If you find anything strange, please email admin@chordie.com.


The River   Parkway Drive

 
 -10-----------8--10--------------10-----------8--10-----------|
 -10-----------8--10--------------10-----------8--10-----------|
 -10-----------9--10--------------10-----------9--10-----------|
 --8----------10--12---------------8----------10--12-----------|
 --------------------------------------------------------------|
 --------------------------------------------------------------|
 -10-----------8--10--------------10---------------------------|
 -10-----------8--10--------------10---------------------------|
 -10-----------9--10--------------10---------------------------|
 --8----------10--12---------------8---------------------------|
 --------------------------------------------------------------|
 --------------------------------------------------------------|

 


 


 


 0:28


 


 ^ ___


 

 
 -6-5----------5------------^-----------/ \------|
 -----6----6-----6---6-----6-5------3--3/5\3/5--5--|
 -------7--3-------7----7------7-5--2-----------5--|
 -----------------------5--------------------------|
 --------------------------------------------------|
 --------------------------------------------------|

 


 


 ^


 

 
 -6-5----------5------------^-----------5------|
 -----6----6-----6---6-----6-5------3-------5--|
 -------7--3-------7----7------7-5--2-------5--|
 -----------------------5----------------------|
 ----------------------------------------------|
 ----------------------------------------------|

 


 


 


 0:43


 


 [1] ^ ___


 

 
 -6-5----------5------------^-----------/ \-----|
 -----6----------6---6-----6-5---------3/5\3/5----|
 -------7--3-------7-----------7-5\2-----------5--|
 -----------------------5-------------------------|
 -------------------------------------------------|
 -------------------------------------------------|

 


 [2]  

 
 ---------------------------------------------------------------|
 ---------------------------------------------------------------|
 ---------------------------------------------------------------|
 ---------------------------------------------------------------|
 --------------8---------------5-------------0---0-0-0-0--3-----|
 --------------8---------------5-------------0---0-0-0-0--3-----|

 


 * * * *


 


 [1] ^ ___


 

 
 -6-5----------5------------^-----------/ \-----|
 -----6----------6---6-----6-5---------3/5\3/5----|
 -------7--3-------7-----------7-5/7-----------5--|
 -----------------------5-------------------------|
 -------------------------------------------------|
 -------------------------------------------------|

 


 [2]  

 
 ---------------------------------------------------------------|
 ---------------------------------------------------------------|
 ---------------------------------------------------------------|
 ---------------------------------------------------------------|
 --------------8---------------5-------------0---0-0-0-0--3-----|
 --------------8---------------5-------------0---0-0-0-0--3-----|

 


 * * * *


 


 0:58


 


 

 
 ---------------------------------------------------------------|
 ---------------------------------------------------------------|
 ---------------------------------------------------------------|
 ----------------------------------------------p----------------|
 -0---------------------------------------------s-\-------------|
 -0-----------------------------------------------\-------------|

 


 


 


 1:13


 

 
 ------------------------------------------------------------------------|
 ------------------------------------------------------------------------|
 ------------------------------------------------------------------------|
 ------------------------------------------------------------------------|
 ------5----5---5-8-----------5---3--------5---5---3-5-----------5---3---|
 -8888--88---88-----00-5-00-5--00- 00-0000--00--00-----00-3-00-3--00--00-|

 


 **** ** ** ** ** ** ** **** ** ** ** ** ** **


 


 

 
 ------------------------------------------------------------------------|
 ------------------------------------------------------------------------|
 ------------------------------------------------------------------------|
 ------------------------------------------------------------------------|
 ------5----5---5-8-----------5---3--------5---5---3-5-----------5---3---|
 -8888--88---88-----00-5-00-5--00- 00-0000--00--00-----00-3-00-3--00--00-|

 


 **** ** ** ** ** ** ** **** ** ** ** ** ** **


 


 1:28


 L


 

 
 ------------------------------------------------------------------------|
 ------------------------------------------------------------------------|
 ------------------------------------------------------------------------|
 ------------------------------------------------------------------------|
 ------5----5---5-8-----------5---3--------5---5---3-5-----------5---3---|
 -8888--88---88-----00-5-00-5--00- 00-0000--00--00-----00-3-00-3--00--00-|

 


 **** ** ** ** ** ** ** **** ** ** ** ** ** **


 R


 

 
 -----------------------------------------------------------------------|
 -----------------------------------------------------------------------|
 -----------------------------------------------------------------------|
 -----------------------------------------------------------------------|
 --------8----8----8-12----------12--8-------8--8--7-8----------8---7---|
 12121212-1212-1212----00-8-00-8---00-00-0000-00-00---00-7-00-7--00--00-|

 


 * * * * * * * * ** ** ** ** **** ** ** ** ** ** **


 


 L


 

 
 ----------------------------------------------------------------|
 ----------------------------------------------------------------|
 ----------------------------------------------------------------|
 ----------------------------------------------------------------|
 ------5----5---5-8-----------5---3--------5---5---3-5-----------|
 -8888--88---88-----00-5-00-5--00- 00-0000--00--00-----00-3-00-3-|

 


 **** ** ** ** ** ** ** **** ** ** ** **


 R


 

 
 ----------------------------------------------------------------|
 ----------------------------------------------------------------|
 ----------------------------------------------------------------|
 ----------------------------------------------------------------|
 --------8----8----8-12----------12--8-------8--8--7-8-----------|
 12121212-1212-1212----00-8-00-8---00-00-0000-00-00---00-7-00-7--|

 


 * * * * * * * * ** ** ** ** **** ** ** ** **


 


 


 1:43


 


 [1] ^ ___


 

 
 -6-5----------5------------^-----------/ \-----|
 -----6----------6---6-----6-5---------3/5\3/5----|
 -------7--3-------7-----------7-5\2-----------5--|
 -----------------------5-------------------------|
 -------------------------------------------------|
 -------------------------------------------------|

 


 [2]  

 
 ---------------------------------------------------------------|
 ---------------------------------------------------------------|
 ---------------------------------------------------------------|
 ---------------------------------------------------------------|
 --------------8---------------5-------------0---0-0-0-0--3-----|
 --------------8---------------5-------------0---0-0-0-0--3-----|

 


 * * * *


 [1] ^ ___


 

 
 -6-5----------5------------^-----------/ \-----|
 -----6----------6---6-----6-5---------3/5\3/5----|
 -------7--3-------7-----------7-5/7-----------5--|
 -----------------------5-------------------------|
 -------------------------------------------------|
 -------------------------------------------------|

 


 [2]  

 
 ---------------------------------------------------------------|
 ---------------------------------------------------------------|
 ---------------------------------------------------------------|
 ---------------------------------------------------------------|
 --------------8---------------5-------------0---0-0-0-0--3-----|
 --------------8---------------5-------------0---0-0-0-0--3-----|

 


 * * * *


 


 1:57


 


 [1]  

 
 -------8-----5--------------8------5---------|
 --6------5-----5-------6------5------5-------|
 ----9------7-------------9------7-------7----|
 ---------------------------------------------|
 ---------------------------------------------|
 ---------------------------------------------|

 


 [2]  

 
 ---------------------------------------------|
 ---------------------------------------------|
 ---------------------------------------------|
 -10-------------------12---------------------|
 --8-------------------10---------------------|
 --8-------------------10---------------------|

 


 


 [1]  

 
 -------8------5----------------8------5------|
 --6-------------5---------6------5------5----|
 ----9----9-7-------7--------9------7---------|
 ---------------------------------------------|
 ---------------------------------------------|
 ---------------------------------------------|

 


 [2]  

 
 ---------------------------------------------|
 ---------------------------------------------|
 ---------------------------------------------|
 -0------------------------12-----------------|
 -0------------------------10-----------------|
 -0------------------------10-----------------|
 ---------------------------------------------------|
 ---------------------------------------------------|
 ---------------------------------------------------|
 -0-------------------------------------------------|
 -0-------------------------------------------------|
 -0-------------------------------------------------|

 


 


 


 2:19


 


 L


 

 
 ----------------------------------------------------___________----|
 ---------------------------------------------------/ \---|
 --------------------------------------------------5-7-5-7-5-7-5-7--|
 --------------------------------------------------X-X-X-X-X-X-X-x--|
 -0-0-0-0-0-0-0-0-8-8-8-8-8-8-8-8-5-5-5-5-5-5-5-5--3/5\3/5\3/5\3/5--|
 -0-0-0-0-0-0-0-0-8-8-8-8-8-8-8-8-5-5-5-5-5-5-5-5-------------------|

 


 * * * * * * * * * * * * * * * * * * * * * * * *


 R


 

 
 ---------------------------------------------------______________---|
 --------------------------------------------------/ \--|
 -------------------------------------------------9-10-9-10-9-10-9-10|
 -------------------------------------------------X--X-X--X-X--X-X--x|
 -0-0-0-0-0-0-0-0-8-8-8-8-8-8-8-8-5-5-5-5-5-5-5-5-7/-8\7/-8\7/-8\7-/8|
 -0-0-0-0-0-0-0-0-8-8-8-8-8-8-8-8-5-5-5-5-5-5-5-5--------------------|

 


 


 


 2:26


 


 

 
 ------------------------------------------------------------------------|
 ------------------------------------------------------------------------|
 ------------------------------------------------------------------------|
 ------------------------------------------------------------------------|
 ------5----5---5-8-----------5---3--------5---5---3-5-----------5---3---|
 -8888--88---88-----00-5-00-5--00- 00-0000--00--00-----00-3-00-3--00--00-|

 


 **** ** ** ** ** ** ** **** ** ** ** ** ** **


 


 

 
 ------------------------------------------------------------------------|
 ------------------------------------------------------------------------|
 ------------------------------------------------------------------------|
 ------------------------------------------------------------------------|
 ------5----5---5-8-----------5---3--------5---5---3-5-----------5---3---|
 -8888--88---88-----00-5-00-5--00- 00-0000--00--00-----00-3-00-3--00--00-|

 


 **** ** ** ** ** ** ** **** ** ** ** ** ** **


 


 


 2:41


 


 L


 

 
 --------------------------__----------------_____________------|
 -------------------------/ \--------------/ \-----|
 ------7----7-------7----7-10-9-------5----5-7-5-7-5-7-5-7-5----|
 ------X----X-------X----X--X-X-------X----X-X-X-X-X-X-X-X-X----|
 ------5----5~~-----5----5/-8\7-------3----3/5\3/5\3/5\3/5\3~~--|
 -0000---00------00---00-----------00---00----------------------|

 


 **** ** ** ** ** **


 R


 

 
 ---------------------------------------------_________________-----|
 --------------------------------------------/ \----|
 -----10---10------10---10-14-12------9-----9-10-9-10-9-10-9-10-9---|
 ------X----X-------X----X-X---X------X-----x--x-x--x-x--x-x--x-x---|
 ------8----8~~-----8----8/12\10------7-----7/-8\7/-8\7/-8\7/-8\7~~-|
 -0000---00------00---00-----------00---00--------------------------|

 


 **** ** ** ** ** **


 


 L


 

 
 --------------------------__----------------_____________------|
 -------------------------/ \--------------/ \-----|
 ------7----7-------7----7-10-9-------5----5-7-5-7-5-7-5-7-5----|
 ------X----X-------X----X--X-X-------X----X-X-X-X-X-X-X-X-X----|
 ------5----5~~-----5----5/-8\7-------3----3/5\3/5\3/5\3/5\3~~--|
 -0000---00------00---00-----------00---00----------------------|

 


 **** ** ** ** ** **


 R


 

 
 ---------------------------------------------_________________-----|
 --------------------------------------------/ \----|
 -----10---10------10---10-14-12------9-----9-10-9-10-9-10-9-10-9---|
 ------X----X-------X----X-X---X------X-----x--x-x--x-x--x-x--x-x---|
 ------8----8~~-----8----8/12\10------7-----7/-8\7/-8\7/-8\7/-8\7~~-|
 -0000---00------00---00-----------00---00--------------------------|

 


 **** ** ** ** ** **


 


 


 2:56


 


 L


 

 
 -10---------------8--10--------------10-----------8--10-----------|
 -10---------------8--10--------------10-----------8--10-----------|
 -10---------------9--10--------------10-----------9--10-----------|
 --8--------------10--12---------------8----------10--12-----------|
 ------------------------------------------------------------------|
 ------------------------------------------------------------------|

 


 R _____________


 

 
 -15-13-12--------------------------/15-13-12------/ \--|
 ---------15~~-------------------------------15~-131513151315131513-|
 -----------------14-12---------------------------------------------|
 ----------------------------15\14----------------------------------|
 -------------------------------------------------------------------|
 -------------------------------------------------------------------|

 


 ___


 CONT_____ ) (


 

 
 ---)------13-13-------------|
 -15----------16----13~~~~---|
 ----------------------------|
 ----------------------------|
 ----------------------------|
 ----------------------------|

 


 


 3:11


 


 L


 

 
 -10--------------------8--10-----------------|
 -10--------------------8--10-----------------|
 -10--------------------9--10-----------------|
 --8-------------------10--12-----------------|
 ---------------------------------------------|
 ---------------------------------------------|

 


 R


 

 
 -------8------5----------------8------5------|
 --6-------------5---------6------5------5----|
 ----9----9-7-------7--------9------7---------|
 ---------------------------------------------|
 ---------------------------------------------|
 ---------------------------------------------|

 


 


 L


 

 
 -10------------------------------8-----5-----|
 -10-------------------------6------------5---|
 -10---------------------------9----9-7-------|
 --8------------------------------------------|
 ---------------------------------------------|
 ---------------------------------------------|

 


 R


 

 
 -------8------5------------------------------|
 --6-------------5----------------------------|
 ----9----9-7---------------------------------|
 ---------------------------------------------|
 ---------------------------------------------|
 ---------------------------------------------|

 


 


 L


 

 
 -------8------5--------|
 --6-------------5------|
 ----9----9-7-------7---|
 -----------------------|
 -----------------------|
 -----------------------|

 


 R


 

 
 -----------------------|
 --6-----5--------------|
 ----9-7-----------7----|
 -----------------------|
 -----------------------|
 -----------------------|

 


 


 L


 

 
 -------8------5--------|
 --6-------------5------|
 ----9----9-7-------7---|
 -----------------------|
 -----------------------|
 -----------------------|

 


 R


 

 
 -----------------------|
 --6-----5--------------|
 ----9-7-----------7----|
 -----------------------|
 -----------------------|
 -----------------------|

 


 L


 

 
 -------8------5--------|
 --6-------------5------|
 ----9----9-7-------7---|
 -----------------------|
 -----------------------|
 -----------------------|

 


 R


 

 
 -----------------------|
 --6-----5--------------|
 ----9-7-----------7----|
 -----------------------|
 -----------------------|
 -----------------------|

 


 


 L


 

 
 -------8------5--------|
 --6-------------5------|
 ----9----9-7-------7---|
 -----------------------|
 -----------------------|
 -----------------------|

 


 R


 

 
 -----------------------|
 --6-----5--------------|
 ----9-7-----------7----|
 -----------------------|
 -----------------------|
 -----------------------|

 


 


 


 3:40


 


 

 
 -------------------------------------------------------|
 -------------------------------------------------------|
 -------------------------------------------------------|
 -00-0-0-00----00-0-0-00----00-0-0-00----00-0-0-0-------|
 -00-0-0-00----00-0-0-00----00-0-0-00----00-0-0-0---)(--|
 -00-0-0-00----00-0-0-00----00-0-0-00----00-0-0-0-10----|

 


 ** * * ** ** * * ** ** * * ** ** * * *


 


 

 
 -------------------------------------------------------|
 -------------------------------------------------------|
 -------------------------------------------------------|
 -00-0-0-00----00-0-0-00----00-0-0-00----00-0-0-0-------|
 -00-0-0-00----00-0-0-00----00-0-0-00----00-0-0-0---)(--|
 -00-0-0-00----00-0-0-00----00-0-0-00----00-0-0-0-10----|

 


 ** * * ** ** * * ** ** * * ** ** * * *


 


 3:55


 


 L


 

 
 -8---------------8----------------8--------------8-------------|
 ----6--5---5--6-----6--5----5--6----6--5---5--6----6--5----5-6-|
 ---------7----------------7--------------7---------------7-----|
 ---------------------------------------------------------------|
 ---------------------------------------------------------------|
 ---------------------------------------------------------------|

 


 RYTHM


 

 
 ----------------------------------------------------------------------|
 ----------------------------------------------------------------------|
 ----------------------------------------------------------------------|
 ----------------------------------------------------------------------|
 --------------------------------------------------------------------)(|
 88-8-88-88-8-88-1010-10-1010-1010-10-1010-00-0-00-00-0-00-00-0-00-10--|

 


 ** * ** ** * ** * * * * * * * * * * ** * ** ** * ** ** * **


 


 


 4:02


 L


 

 
 -8---------------8----------------8---------------|
 ----6--5---5--6-----6--5----5--6----6--5---5--6---|
 ---------7----------------7--------------7--------|
 --------------------------------------------------|
 --------------------------------------------------|
 --------------------------------------------------|

 


 R


 

 
 -8----------------10----------------12-------------------|
 ---10----------10----10----------10----10---------10-----|
 ------12-10-12----------12-10-12----------12-10-12-------|
 ---------------------------------------------------------|
 ---------------------------------------------------------|
 ---------------------------------------------------------|

 


 RYTHM


 

 
 -------------------------------------------------------------------|
 -------------------------------------------------------------------|
 -------------------------------------------------------------------|
 -------------------------------------------------------------------|
 -------------------------------------------------------------------|
 88-8-88-88-8-88-1010-10-1010-1010-10-1010-1212-12-1212-1212-12-1212|

 


 ** * ** ** * ** * * * * * * * * * * * * * * * * * * * *


 


 4:08


 


 [1] ^ ___


 

 
 -6-5----------5------------^-----------/ \-----|
 -----6----------6---6-----6-5---------3/5\3/5----|
 -------7--3-------7-----------7-5\2-----------5--|
 -----------------------5-------------------------|
 -------------------------------------------------|
 -------------------------------------------------|

 


 


 [2]  

 
 ---------------------------------------------------------------|
 ---------------------------------------------------------------|
 ---------------------------------------------------------------|
 ---------------------------------------------------------------|
 --------------8---------------5-------------0---0-0-0-0--3-----|
 --------------8---------------5-------------0---0-0-0-0--3-----|

 


 * * * *


 


 [1] ^ ___


 

 
 -6-5----------5------------^-----------/ \-----|
 -----6----------6---6-----6-5---------3/5\3/5----|
 -------7--3-------7-----------7-5/7-----------5--|
 -----------------------5-------------------------|
 -------------------------------------------------|
 -------------------------------------------------|

 


 [2]  

 
 ---------------------------------------------------------------|
 ---------------------------------------------------------------|
 ---------------------------------------------------------------|
 ---------------------------------------------------------------|
 --------------8---------------5-------------0---0-0-0-0--3-----|
 --------------8---------------5-------------0---0-0-0-0--3-----|

 


 * * * *


 


 


 4:23


 


 

 
 ----------------------------------------------------|
 ----------------------------------------------------|
 10-9-7-5-----10-9-7-5----10-9-7-5-7---7-9-7-9-5-----|
 -X-X-X-X-3----X-X-X-X-5---X-X-X-X-X---X-X-X-X-X-----|
 -8\7-5\3-1----8\7-5\3-3---8\7-5\3-5---5/7\5/7-3-----|
 ----------------------------------------------------|
 ----------------------------------------------------|
 ----------------------------------------------------|
 10-9-7-5-----10-9-7-5----10-9-7-5-7---7-9-7-9-5-----|
 -X-X-X-X-3----X-X-X-X-5---X-X-X-X-X---X-X-X-X-X-----|
 -8\7-5\3-1----8\7-5\3-3---8\7-5\3-5---5/7\5/7-3-----|
 ----------------------------------------------------|

 


 


 


 4:38


 


 W/WAH


 [1]  

 
 ---------------------------------------------------------------------------|
 ---------------------------^--^---^---^---^---^---^---^--^---^--^---^---)-(|
 --------------------------100-90-100-120-140-120-100-90-120-100-90-100-7---|
 -8------7------5-----3-----------------------------------------------------|
 ---------------------------------------------------------------------------|
 ---------------------------------------------------------------------------|

 


 


 [2]  

 
 ---------------------------------------------------|
 ---------------------------------------------------|
 ---------------------------------------------------|
 ---------------------------------------------------|
 --8---------------5-------------0---0-0-0-0--3-----|
 --8---------------5-------------0---0-0-0-0--3-----|

 


 * * * *


 


 4:46


 


 [1]  

 
 ---------------------------------------------------|
 -----------9-10-9----------------9-12-9------------|
 --12-10-12--------12-10-12-10-12--------12-10------|
 ---------------------------------------------------|
 ---------------------------------------------------|
 ---------------------------------------------------|

 


 CONT. )


 

 
 ----____----------____---------10------------------|
 ---)----^--------)----^--------13------------------|
 -12------10----13------10--------------------------|
 -----------12------------12------------------------|
 ---------------------------------------------------|
 ---------------------------------------------------|

 


 


 [2]  

 
 ---------------------------------------------------|
 ---------------------------------------------------|
 ---------------------------------------------------|
 ---------------------------------------------------|
 --8---------------5-------------0---0-0-0-0--3-----|
 --8---------------5-------------0---0-0-0-0--3-----|

 


 * * * *


 


 4:53


 


 [1] [)] [)] [)] [)]  

 
 -------10------------12----------13-----------15----|
 -------13------------15----------16-----------18----|
 ----------------------------------------------------|
 ----------------------------------------------------|
 ----------------------------------------------------|
 ----------------------------------------------------|

 


 [2]  

 
 ----------------------------------------------------|
 ----------------------------------------------------|
 10-9-7-5-----10-9-7-5----10-9-7-5-7---7-9-7-9-5-----|
 -X-X-X-X-3----X-X-X-X-5---X-X-X-X-X---X-X-X-X-X-----|
 -8\7-5\3-1----8\7-5\3-3---8\7-5\3-5---5/7\5/7-3-----|
 ----------------------------------------------------|

 


 


 [1] [)] [)] [)]  

 
 -------17------17-17-----15-----15-15---------13--------|
 -------20----------------18-------------------16--------|
 --------------------------------------------------------|
 --------------------------------------------------------|
 --------------------------------------------------------|
 --------------------------------------------------------|

 


 [2]  

 
 ----------------------------------------------------|
 ----------------------------------------------------|
 10-9-7-5-----10-9-7-5----10-9-7-5-7--10-910-9-------|
 -X-X-X-X-3----X-X-X-X-5---X-X-X-X-X---X-X-X-X-------|
 -8\7-5\3-1----8\7-5\3-3---8\7-5\3-5---8\7-8\7--0----|
 -----------------------------------------------0----|


Important: The song above is NOT stored on the Chordie server. The original song is hosted at www.guitaretab.com. Chordie works as a search engine and provides on-the-fly formatting. Chordie does not index songs against artists'/composers' will. To remove this song please click here.

This song is displayed as text-only. Transposing and tuning is only available for chordpro-songs.
Rate #1 of 2 versions

Jango Player

Login - add to songbook

SHARE PAGE  



You need to log in to post comments