Guitar Tabs, Chords and Lyrics
Server problems seems to be fixed. Chordie has been experiencing problems with songs disappearing. These issues now seems to be fixed, but still verifying the fix. If you find anything strange, please email admin@chordie.com.


Romance Is Dead   Parkway Drive

 
 ------------------------------------------------------------------|
 ------------------------------------------------------------------|
 ------------------------------------------------------------------|
 ------------------------------------------------------------------|
 ---------------------0-0-000-0-0----------------------------------|
 ---------------------0-0-000-0-0----------------------------------|

 


 . * * *** * *


 R


 

 
 ------------------------------------------------------------------|
 ------------------------------------------------------------------|
 ------------------------------------------------------------------|
 -3-----3---------3---------------3-----3---------3-----3--2-----2-|
 ---7-7---7-7-3-5---5-0-0-000-0-0---7-7---7-7-3-5---3--------3-----|
 ---------------------0-0-000-0-0---------------------5--------5---|

 


 . * * *** * *


 


 L


 

 
 ------------------------------------------------------------------|
 ------------------------------------------------------------------|
 ------------------------------------------------------------------|
 ------------------------------------------------------------------|
 ---------------------0-0-000-0-0----------------------------------|
 ---------------------0-0-000-0-0----------------------------------|

 


 . * * *** * *


 


 R


 

 
 ------------------------------------------------------------------|
 ------------------------------------------------------------------|
 ---------------------------------------------------------1010-9---|
 -3-----3---------3---------------3-----3---------3-----3--X-X-X---|
 ---7-7---7-7-3-5---5-0-0-000-0-0---7-7---7-7-3-5---3------8-8-7---|
 ---------------------0-0-000-0-0---------------------5------------|

 


 . * * *** * *


 


 


 0:11


 


 

 
 ------------------------------------------------------------------|
 ------------------------------------------------------------------|
 ------------------------------------------------------------------|
 -3-----3---------3---------------3-----3---------3-----3--2-----2-|
 ---7-7---7-7-3-5---5-0-0-000-0-0---7-7---7-7-3-5---3--------3-----|
 ---------------------0-0-000-0-0---------------------5--------5---|

 


 . * * *** * *


 


 

 
 ------------------------------------------------------------------|
 ------------------------------------------------------------------|
 ---------------------------------------------------------1010-9---|
 -3-----3---------3---------------3-----3---------3-----3--X-X-X---|
 ---7-7---7-7-3-5---5-0-0-000-0-0---7-7---7-7-3-5---3------8-8-7---|
 ---------------------0-0-000-0-0---------------------5------------|

 


 . * * *** * *


 


 

 
 ------------------------------------------------------------------|
 ------------------------------------------------------------------|
 ------------------------------------------------------------------|
 -3-----3---------3---------------3-----3---------3-----3--2-----2-|
 ---7-7---7-7-3-5---5-0-0-000-0-0---7-7---7-7-3-5---3--------3-----|
 ---------------------0-0-000-0-0---------------------5--------5---|

 


 . * * *** * *


 L R


 

 
 -------------------------------------------------------------------|
 -------------------------------------------------------------------|
 ---------------------------------------------------------10--------|
 -3-----3---------3---------------3-----3---------3-----3--X---10---|
 ---7-7---7-7-3-5---5-0-0-000-0-0---7-7---7-7-3-5---3------8------8-|
 ---------------------0-0-000-0-0---------------------5-------------|

 


 . * * *** * *


 


 


 0:32


 

 
 -------------------------------------------------------------------|
 -------------------------------------------------------------------|
 -------------------------------------------------------------------|
 -----------7----------------10-------------7-----------------10----|
 -5-------------8----3---7------8-5-------------/10--8-7--8-7----8--|
 ---0-0-0-0---0----0---0---0--------0-0-0-0---0---------------------|

 


 . * * * * * * * * * * *


 


 L


 

 
 -------------------------------------------------------------------|
 -------------------------------------------------------------------|
 -------------------------------------------------------------------|
 -----------7----------------10-------------7-----------------10----|
 -5-------------8----3---7------8-5-------------/7--5-3--5-3-----8--|
 ---0-0-0-0---0----0---0---0--------0-0-0-0---0---------------------|

 


 . * * * * * * * * * * *


 R


 

 
 ----------------------------------------------------------------|
 ----------------------------------------------------------------|
 ----------------------------------------------------------------|
 -----------7----------------10-------------7--------------------|
 -5-------------8----3---7------8-5-------------/10--8-7--8-7-3--|
 ---0-0-0-0---0----0---0---0--------0-0-0-0---0------------------|

 


 . * * * * * * * * * * *


 


 


 

 
 -------------------------------------------------------------------|
 -------------------------------------------------------------------|
 -------------------------------------------------------------------|
 -----------7----------------10-------------7-----------------10----|
 -5-------------8----3---7------8-5-------------/10--8-7--8-7----8--|
 ---0-0-0-0---0----0---0---0--------0-0-0-0---0---------------------|

 


 . * * * * * * * * * * *


 


 L


 

 
 ----------------------------------------------------------------|
 ----------------------------------------------------------------|
 ----------------------------------------------------------------|
 -----------7----------------10-------------7--------------------|
 -5-------------8----3---7------8-5--------------/7--5-3--5-3-7--|
 ---0-0-0-0---0----0---0---0--------0-0-0-0---0------------------|

 


 . * * * * * * * * * * *


 R


 

 
 ----------------------------------------------------------------|
 ----------------------------------------------------------------|
 ----------------------------------------------------------------|
 -----------7----------------10-------------7--------------------|
 -5-------------8----3---7------8-5-------------/10--8-7--8-7-3--|
 ---0-0-0-0---0----0---0---0--------0-0-0-0---0------------------|

 


 . * * * * * * * * * * *


 


 


 0:53


 L


 

 
 ------------------------------------------------------------------|
 ------------------------------------------------------------------|
 ------------------------------------------------------------------|
 ---------------------------7-7-7--------------------7-7-7-5-5-5-5-|
 -0-----0---0-0-----0---0---8-8-8--0-----0---0-0-----8-8-8-7-7-7-7-|
 -0-0-0-0-0-0-0-0-0-0-0-0-0--------0-0-0-0-0-0-0-0-0---------------|

 


 * * * * * * * * * * * *


 R


 

 
 ------------------------------------------------------------------|
 ------------------------------------------------------------------|
 ------------------------------------------------------------------|
 ---------------------------7-7-7--------------------5-5-5-2-2-2-2-|
 -0-----0---0-0-----0---0---8-8-8--0-----0---0-0-----7-7-7-3-3-3-3-|
 -0-0-0-0-0-0-0-0-0-0-0-0-0--------0-0-0-0-0-0-0-0-0---------------|

 


 * * * * * * * * * * * *


 


 1:04


 L


 

 
 ---------------------------------------------------------------|
 ---------------------------------------------------------------|
 ---------------------------------------------------------------|
 -------------------------7-7-7-------------------7-7-7-5-5-5-5-|
 -0-----0---0-0-----------8-8-8-0-----0---0-0-----8-8-8-7-7-7-7-|
 -0-0-0-0-0-0-0-|-0-0-0-0-------0-0-0-0-0-0-0-0-0---------------|

 


 * * * * * * * * * * * *


 R


 

 
 ---------------------------------------------------------------|
 ---------------------------------------------------------------|
 ---------------------------------------------------------------|
 -------------------------7-7-7-------------------5-5-5-2-2-2-2-|
 -0-----0---0-0-----------8-8-8-0-----0---0-0-----7-7-7-3-3-3-3-|
 -0-0-0-0-0-0-0-|-0-0-0-0-------0-0-0-0-0-0-0-0-0---------------|

 


 * * * * * * * * * * * *


 L


 

 
 ---------------------------------------------------------------|
 ---------------------------------------------------------------|
 ---------------------------------------------------------------|
 -------------------------7-7-7-------------------7-7-7-5-5-5-5-|
 -0-----0---0-0-----------8-8-8-0-----0---0-0-----8-8-8-7-7-7-7-|
 -0-0-0-0-0-0-0-|-0-0-0-0-------0-0-0-0-0-0-0-0-0---------------|

 


 * * * * * * * * * * * *


 R


 

 
 ---------------------------------------------------------------|
 ---------------------------------------------------------------|
 ---------------------------------------------------------------|
 -------------------------7-7-7-------------------5-5-5-2-2-2-2-|
 -0-----0---0-0-----------8-8-8-0-----0---0-0-----7-7-7-3-3-3-3-|
 -0-0-0-0-0-0-0-|-0-0-0-0-------0-0-0-0-0-0-0-0-0---------------|

 


 * * * * * * * * * * * *


 


 


 1:15


 L


 

 
 ------------------------------------------------------------------|
 ------------------------------------------------------------------|
 ------------------------------------------------------------------|
 -3-----3---------3---------------3-----3---------3-----3--2-----2-|
 ---7-7---7-7-3-5---5-0-0-000-0-0---7-7---7-7-3-5---3--------3-----|
 ---------------------0-0-000-0-0---------------------5--------5---|

 


 . * * *** * *


 


 L


 

 
 ------------------------------------------------------------------|
 ------------------------------------------------------------------|
 ---------------------------------------------------------1010-9---|
 -3-----3---------3---------------3-----3---------3-----3--X-X-X---|
 ---7-7---7-7-3-5---5-0-0-000-0-0---7-7---7-7-3-5---3------8-8-7---|
 ---------------------0-0-000-0-0---------------------5------------|

 


 . * * *** * *


 R


 

 
 -------------------------------------------------------------------|
 -------------------------------------------------------------------|
 ----------------------------------------------------------14-14-12-|
 -----------------------------------------------------------X--X--X-|
 ----------------------------------------------------------12-12-10-|
 -------------------------------------------------------------------|

 


 


 


 1:26


 

 
 ------------------------------------------------------------------|
 ------------------------------------------------------------------|
 ------------------------------------------------------------------|
 -3-----3---------3---------------3-----3---------3-----3--2-----2-|
 ---7-7---7-7-3-5---5-000-000-000---7-7---7-7-3-5---3--------3-----|
 ---------------------000-000-000---------------------5--------5---|

 


 . *** *** ***


 


 L


 

 
 ------------------------------------------------------------------|
 ------------------------------------------------------------------|
 ---------------------------------------------------------1010-9---|
 -3-----3---------3---------------3-----3---------3-----3--X-X-X---|
 ---7-7---7-7-3-5---5-000-000-000---7-7---7-7-3-5---3------8-8-7---|
 ---------------------000-000-000---------------------5------------|

 


 . *** *** ***


 R


 

 
 ------------------------------------------------------------------|
 ------------------------------------------------------------------|
 ---------------------------------------------------------14-14-12-|
 -3-----3---------3---------------3-----3---------3-----3--X--X--X-|
 ---7-7---7-7-3-5---5-000-000-000---7-7---7-7-3-5---3-----12-12-10-|
 ---------------------000-000-000---------------------5------------|

 


 . *** *** ***


 


 


 1:37


 

 
 ----------------------------------------------------------|
 ----------------------------------------------------------|
 ----------------------------------------------------------|
 -3-5-3---7-5-----0000-0000-0000-0000-0000-0000-0000-0000--|
 -1-3-1-3-5-3-3-5-0000-0000-0000-0000-0000-0000-0000-0000--|
 -------3-----3-5-0000-0000-0000-0000-0000-0000-0000-0000--|

 


 .* * * * * * * * **** **** **** **** **** **** **** ****


 


 L


 

 
 ----------------------------------------|
 ----------------------------------------|
 ----------------------------------------|
 -0000-0000-0000-0000-----------8--------|
 -0000-0000-0000-0000-----------8\-------|
 -0000-0000-0000-0000--------------------|

 


 


 R


 

 
 ----------------------------------------|
 ----------------------------------------|
 ----------------------------------------|
 -0000-0000-0000-0000-3-----3-2-----2----|
 -0000-0000-0000-0000---3-------3--------|
 -0000-0000-0000-0000-----5-------5------|

 


 


 


 1:47


 L


 

 
 ---------------------------------------------------------------|
 ---------------------------------------------------------------|
 ----------------------------------------------3---3------------|
 -0-0-0-0-00-00--0-0-0-0-00-00--0-0-0-0-00-00----7---7--3-----3-|
 -0-0-0-0-00-00--0-0-0-0-00-00--0-0-0-0-00-00-------------7-----|
 -0-0-0-0-00-00--0-0-0-0-00-00--0-0-0-0-00-00---------------5---|

 


 .* * * * ** ** * * * * ** ** * * * * ** **


 R


 

 
 ---------------------------------------------------------------|
 ---------------------------------------------------------------|
 ---------------------------------------------------------------|
 -0-0-0-0-00-00--0-0-0-0-00-00--0-0-0-0-00-00--3-----3-2-----2--|
 -0-0-0-0-00-00--0-0-0-0-00-00--0-0-0-0-00-00----3-------3------|
 -0-0-0-0-00-00--0-0-0-0-00-00--0-0-0-0-00-00------5-------5----|
 -----------------------------------------------|
 -----------------------------------------------|
 -----------------------------------------------|
 -0-0-0-0-00-00--0-0-0-0-00-00--0-0-0-0-00-00---|
 -0-0-0-0-00-00--0-0-0-0-00-00--0-0-0-0-00-00---|
 -0-0-0-0-00-00--0-0-0-0-00-00--0-0-0-0-00-00---|

 


 .* * * * ** ** * * * * ** ** * * * * ** **


 


 L


 

 
 --------------------------------------------------------------|
 --------------------------------------------------------------|
 ----------------------------------------------3---3-----------|
 -00000-0-00-00--00000-0-00-00--00000-0-00-00----7---7-3-----3-|
 -00000-0-00-00--00000-0-00-00--00000-0-00-00------------7-----|
 -00000-0-00-00--00000-0-00-00--00000-0-00-00--------------5---|

 


 .***** * ** ** ***** * ** ** ***** * ** **


 R


 

 
 ---------------------------------------------------------------|
 ---------------------------------------------------------------|
 ---------------------------------------------10------9-9-----9-|
 -00000-0-00-00--00000-0-00-00--00000-0-00-00---14-10----10-----|
 -00000-0-00-00--00000-0-00-00--00000-0-00-00--------------12---|
 -00000-0-00-00--00000-0-00-00--00000-0-00-00-------------------|

 


 .***** * ** ** ***** * ** ** ***** * ** **


 


 L


 

 
 --------------------------------------------------------------|
 --------------------------------------------------------------|
 ----------------------------------------------3---3-----------|
 -00000-0-00-00--00000-0-00-00--00000-0-00-00----7---7-3-------|
 -00000-0-00-00--00000-0-00-00--00000-0-00-00------------7-----|
 -00000-0-00-00--00000-0-00-00--00000-0-00-00--------------15\-|

 


 .***** * ** ** ***** * ** ** ***** * ** **


 R


 

 
 ---------------------------------------------------------------|
 ---------------------------------------------------------------|
 ---------------------------------------------------------------|
 -00000-0-00-00--00000-0-00-00--00000-0-00-00--3-----3-2--------|
 -00000-0-00-00--00000-0-00-00--00000-0-00-00----3-------3------|
 -00000-0-00-00--00000-0-00-00--00000-0-00-00------5-------15\--|

 


 .***** * ** ** ***** * ** ** ***** * ** **


 


 


 L


 

 
 ---------------------------------------------------------------|
 ---------------------------------------------------------------|
 ---------------------------------------------------------------|
 ---------------------------10----------------------------------|
 ------------------------------8-5------------------------------|
 ---------------------------------------------------------------|

 


 


 R


 

 
 -------------------------------------------------------------------|
 -------------------------------------------------------------------|
 -------------------------------------------------------------------|
 -----------7----------------10-------------7-----------------10----|
 -5-------------8----3---7------8-5-------------/10--8-7--8-7----8--|
 ---0-0-0-0---0----0---0---0--------0-0-0-0---0---------------------|

 


 . * * * * * * * * * *


 


 L


 

 
 -----------------------------------------------------------------|
 -----------------------------------------------------------------|
 -----------------------------------------------------------------|
 ---------------------------10-------------------------------10---|
 -0----------------------------8-5--------------/7--5-3--5-3----8-|
 -0-|-------------------------------------------------------------|

 


 


 R


 

 
 -------------------------------------------------------------------|
 -------------------------------------------------------------------|
 -------------------------------------------------------------------|
 -----------7----------------10-------------7-----------------10----|
 -5-------------8----3---7------8-5-------------/10--8-7--8-7----8--|
 ---0-0-0-0---0----0---0---0--------0-0-0-0---0---------------------|

 


 . * * * * * * * * * *


 


 


 

 
 -------------------------------------------------------------------|
 -------------------------------------------------------------------|
 -------------------------------------------------------------------|
 -----------7----------------10-------------7-----------------10----|
 -5-------------8----3---7------8-5-------------/10--8-7--8-7----8--|
 ---0-0-0-0---0----0---0---0--------0-0-0-0---0---------------------|

 


 . * * * * * * * * * *


 


 L


 

 
 ------------------------------------------------------------------|
 ------------------------------------------------------------------|
 ------------------------------------------------------------------|
 -----------7----------------10-------------7-----------------10---|
 -5-------------8----3---7------8-5--------------/7--5-3--5-3----8-|
 ---0-0-0-0---0----0---0---0--------0-0-0-0---0--------------------|

 


 . * * * * * * * * * *


 R


 

 
 -----------------------------------------------------------------|
 -----------------------------------------------------------------|
 -----------------------------------------------------------------|
 -----------7----------------10-------------7---------------------|
 -5-------------8----3---7------8-5-------------/10--8-7--8-7-7-8-|
 ---0-0-0-0---0----0---0---0--------0-0-0-0---0-------------------|

 


 . * * * * * * * * * *


 


 L


 

 
 -------------------------------------------------------------------|
 -------------------------------------------------------------------|
 -------------------------------------------------------------------|
 -----------7----------------10-------------7-----------------10----|
 -5-------------8----3---7------8-5-------------/10--8-7--8-7----8--|
 ---0-0-0-0---0----0---0---0--------0-0-0-0---0---------------------|

 


 . * * * * * * * * * *


 


 

 
 -------------------------------------------------------------------|
 -------------------------------------------------------------------|
 -------------------------------------------------------------------|
 ----------------3--3-3-5-5-5-5-5----------------10-10-10-5-5-5-5-5-|
 -0--------------1--1-1-3-3-3-3-3-0--------------8--8--8--3-3-3-3-3-|
 -0-000000000000------------------0-000000000000--------------------|

 


 . ************ ************


 


 L


 

 
 -----------------------------------------------------------------------|
 -----------------------------------------------------------------------|
 ------------------------------------------------------------------5----|
 -----------7----------------10-------------7-----------------7-5-3--3-2|
 -5-------------8----3---7------8-5------------/10--8-7--8-7-3----------|
 ---0-0-0-0---0----0---0---0--------0-0-0-0---0-------------------------|

 


 . * * * * * * * * * *


 


 

 
 ----------------------------------------------------------------------|
 ----------------------------------------------------------------------|
 ----------------------------------------------------------------------|
 ---------------3-3-3-5-5-5-5-5----------------------------------------|
 0--------------1-1-1-3-3-3-3-3-0-------------131210-12108-12108-7-5-3-|
 0-000000000000-----------------0-000000000000-------------------------|

 


 . ************ ************


 


 


 


 [2]  

 
 ----------------------------------|
 ----------------------------------|
 ----------------------------------|
 ----------------------------------|
 -000-000-000-000-XXX-XXX-XXX-XXX--|
 -000-000-000-000-XXX-XXX-XXX-XXX--|

 


 


 


 L


 

 
 --------------------------------------------------|
 --------------------------------------------------|
 -99-00-55-77-99-77-55-00-99-00-55-77-99-77-55-00--|
 --------------------------------------------------|
 --------------------------------------------------|
 --------------------------------------------------|

 


 


 R


 

 
 --------------------------------------------------|
 --------------------------------------------------|
 -------------------------------------7------------|
 -------------------------------------X------------|
 -3-----------------------------------5------------|
 -3------------------------------------------------|

 


 


 L


 

 
 ---------------------------------------------------------------|
 ---------------------------------------------------------------|
 -77-00-44-55-77-55-44-00-77-00-44-55-77-55-44-00---------------|
 ---------------------------------------------------------------|
 ---------------------------------------------------------------|
 ---------------------------------------------------------------|

 


 


 R


 

 
 ---------------------------------------------------------------|
 ---------------------------------------------------------------|
 ------------------------------------10-------------------------|
 -------------------------------------X-------------------------|
 -0-----------------------------------8-------------------------|
 -0-------------------------------------------------------------|

 


 


 L


 

 
 --------------------------------------------------|
 --------------------------------------------------|
 -99-00-55-77-99-77-55-00-99-00-55-77-99-77-55-00--|
 --------------------------------------------------|
 --------------------------------------------------|
 --------------------------------------------------|

 


 


 R


 

 
 --------------------------------------------------|
 --------------------------------------------------|
 -------------------------------------7------------|
 -------------------------------------X------------|
 -3-----------------------------------5------------|
 -3------------------------------------------------|

 


 


 L


 

 
 ---------------------------------------------------------------|
 ---------------------------------------------------------------|
 -77-00-44-55-77-55-44-00-77-00-44-55-77-55-44-00---------------|
 ---------------------------------------------------------------|
 ---------------------------------------------------------------|
 ---------------------------------------------------------------|

 


 


 R


 

 
 ---------------------------------------------------------------|
 ---------------------------------------------------------------|
 ------------------------------------12-------------------------|
 -------------------------------------X-------------------------|
 -0----------------------------------10-------------------------|
 -0-------------------------------------------------------------|
 ---------------------------------------------------------------|
 ---------------------------------------------------------------|
 ---------------------------------------------------------------|
 ---------------------------------------------------------------|
 ---------------------------------------------------------------|
 ---------------------------------------------------------------|

 


 


 L


 

 
 --------------------------------------------------|
 --------------------------------------------------|
 -99-00-55-77-99-77-55-00-99-00-55-77-99-77-55-00--|
 --------------------------------------------------|
 --------------------------------------------------|
 --------------------------------------------------|

 


 


 R


 

 
 --------------------------------------------------|
 --------------------------------------------------|
 -------------------------------------7------------|
 -------------------------------------X------------|
 -3-----------------------------------5------------|
 -3------------------------------------------------|

 


 


 L


 

 
 ---------------------------------------------------------------|
 ---------------------------------------------------------------|
 -77-00-44-55-77-55-44-00-77-00-44-55-77-55-44-00---------------|
 ---------------------------------------------------------------|
 ---------------------------------------------------------------|
 ---------------------------------------------------------------|

 


 


 R


 

 
 ---------------------------------------------------------------|
 ---------------------------------------------------------------|
 ------------------------------------10-------------------------|
 -------------------------------------X-------------------------|
 -0-----------------------------------8-------------------------|
 -0-------------------------------------------------------------|

 


 


 L


 

 
 --------------------------------------------------|
 --------------------------------------------------|
 -99-00-55-77-99-77-55-00-99-00-55-77-99-77-55-00--|
 --------------------------------------------------|
 --------------------------------------------------|
 --------------------------------------------------|

 


 


 R


 

 
 --------------------------------------------------|
 --------------------------------------------------|
 -------------------------------------7------------|
 -------------------------------------X------------|
 -3-----------------------------------5------------|
 -3------------------------------------------------|

 


 


 L


 

 
 ---------------------------------------------------------------|
 ---------------------------------------------------------------|
 -77-00-44-55-77-55-44-00-77-00-44-55-77-55-44-00---------------|
 ---------------------------------------------------------------|
 ---------------------------------------------------------------|
 ---------------------------------------------------------------|

 


 


 R


 

 
 ---------------------------------------------------------------|
 ---------------------------------------------------------------|
 ------------------------------------12-12-12-------------------|
 -------------------------------------X--X--X-------------------|
 -0----------------------------------10-10-10-------------------|
 -0-------------------------------------------------------------|

 


 


 L


 

 
 --------------------------------------------------|
 --------------------------------------------------|
 -99-00-55-77-99-77-55-00-99-00-55-77-99-77-55-00--|
 --------------------------------------------------|
 --------------------------------------------------|
 --------------------------------------------------|

 


 ************************************************


 


 

 
 ---------------------------------------------------|
 ---------------------------------------------------|
 ------------------------------------7-7-7----------|
 ------------------------------------X-X-X----------|
 -3-------3--------3-------3---------5-5-5----------|
 -3---3-3-3--3-3-3-3---3-3-3---3-3------------------|

 


 * * * * * * * * *


 


 L


 

 
 ---------------------------------------------------------------|
 ---------------------------------------------------------------|
 -77-00-44-55-77-55-44-00-77-00-44-55-77-55-44-00---------------|
 ---------------------------------------------------------------|
 ---------------------------------------------------------------|
 ---------------------------------------------------------------|

 


 *************************************************


 


 R


 

 
 ---------------------------------------------------------------|
 ---------------------------------------------------------------|
 -----------------------------------10-10-10--------------------|
 ------------------------------------X--X--X--------------------|
 -0-------0--------0-------0---------8--8--8--------------------|
 -0---0-0-0--0-0-0-0---0-0-0---0-0------------------------------|

 


 * * * * * * * * *


 L


 

 
 --------------------------------------------------|
 --------------------------------------------------|
 -99-00-55-77-99-77-55-00-99-00-55-77-99-77-55-00--|
 --------------------------------------------------|
 --------------------------------------------------|
 --------------------------------------------------|

 


 ************************************************


 


 

 
 ---------------------------------------------------|
 ---------------------------------------------------|
 ------------------------------------7-7-7----------|
 ------------------------------------X-X-X----------|
 -3-------3--------3-------3---------5-5-5----------|
 -3---3-3-3--3-3-3-3---3-3-3---3-3------------------|

 


 * * * * * * * * *


 


 L


 

 
 ---------------------------------------------------------------|
 ---------------------------------------------------------------|
 -77-00-44-55-77-55-44-00-77-00-44-55-77-55-44-00---------------|
 ---------------------------------------------------------------|
 ---------------------------------------------------------------|
 ---------------------------------------------------------------|

 


 ****************


 


 R


 

 
 ---------------------------------------------------------------|
 ---------------------------------------------------------------|
 -----------------------------------12-12-12--------------------|
 ------------------------------------X--X--X--------------------|
 -0-------0--------0-------0--------10-10-10--------------------|
 -0---0-0-0--0-0-0-0---0-0-0---0-0------------------------------|

 


 * * * * * * * * *


 


 


 3:32


 


 ^ ^ ^ ^ ^ ^ ^ ^


 

 
 13-5-12-5-15-5-13-5-12-5-10-5-13-5-12-5---|
 ------------------------------------------|
 -T----T----T----T----T----T----T----T-----|
 ------------------------------------------|
 ------------------------------------------|
 ------------------------------------------|
 ---^----^----^----^----^----^----^----^---|
 -13-8-12-8-15-8-13-8-12-8-10-8-13-8-12-8--|
 ------------------------------------------|
 --T----T----T----T----T----T----T----T----|
 ------------------------------------------|
 ------------------------------------------|

 


 


 ^ ^ ^ ^ ^ ^ ^ ^


 

 
 13-5-12-5-15-5-13-5-12-5-10-5-13-5-12-5---|
 ------------------------------------------|
 -T----T----T----T----T----T----T----T-----|
 ------------------------------------------|
 ------------------------------------------|
 ------------------------------------------|
 ---^----^----^----^----^----^----^----^---|
 -13-8-12-8-15-8-13-8-12-8-10-8-13-8-12-8--|
 ------------------------------------------|
 --T----T----T----T----T----T----T----T----|
 ------------------------------------------|
 ------------------------------------------|

 


 


 3:38


 


 L


 ^ ^ ^ ^ ^ ^ ^ ^


 

 
 13-5-12-5-15-5-13-5-12-5-10-5-13-5-12-5---|
 ------------------------------------------|
 -T----T----T----T----T----T----T----T-----|
 ------------------------------------------|
 ------------------------------------------|
 ------------------------------------------|

 


 


 _ _ _ _ _ _ _ _


 R / \ / \ / \ / \ / \ / \ / \ / \


 

 
 171012-171012-171012-171012-171012-171012-171012-171012-|
 --------------------------------------------------------|
 -T-----T------T------T------T------T------T------T------|
 --------------------------------------------------------|
 --------------------------------------------------------|
 --------------------------------------------------------|

 


 


 L


 

 
 ---^----^----^----^----^----^----^----^---|
 -13-8-12-8-15-8-13-8-12-8-10-8-13-8-12-8--|
 ------------------------------------------|
 --T----T----T----T----T----T----T----T----|
 ------------------------------------------|
 ------------------------------------------|

 


 R _ _ _ _ _ _ _ _


 / \ / \ / \ / \ / \ / \ / \ / \


 

 
 -15-810-15-810-15-810-15-810-15-810-15-810-15-810-15-810-|
 --T-----T------T------T------T------T------T-----T-------|
 ---------------------------------------------------------|
 ---------------------------------------------------------|
 ---------------------------------------------------------|
 ---------------------------------------------------------|

 


 


 L


 ^ ^ ^ ^ ^ ^ ^ ^


 

 
 13-5-12-5-15-5-13-5-12-5-10-5-13-5-12-5---|
 ------------------------------------------|
 -T----T----T----T----T----T----T----T-----|
 ------------------------------------------|
 ------------------------------------------|
 ------------------------------------------|

 


 


 _ _ _ _ _ _ _ _


 R / \ / \ / \ / \ / \ / \ / \ / \


 

 
 171012-171012-171012-171012-171012-171012-171012-171012-|
 --------------------------------------------------------|
 -T-----T------T------T------T------T------T------T------|
 --------------------------------------------------------|
 --------------------------------------------------------|
 --------------------------------------------------------|

 


 


 L


 

 
 ---^----^----^----^----^----^----^----^---|
 -13-8-12-8-15-8-13-8-12-8-10-8-13-8-12-8--|
 ------------------------------------------|
 --T----T----T----T----T----T----T----T----|
 ------------------------------------------|
 ------------------------------------------|

 


 R _ _ _ _ _ _ _ _


 / \ / \ / \ / \ / \ / \ / \ / \


 

 
 -15-810-15-810-15-810-15-810-15-810-15-810-15-810-15-810-|
 --T-----T------T------T------T------T------T-----T-------|
 ---------------------------------------------------------|
 ---------------------------------------------------------|
 ---------------------------------------------------------|
 ---------------------------------------------------------|

 


 


 3:45


 

 
 -----------------------------------------------------------|
 -----------------------------------------------------------|
 ------/12--------------------------------------------------|
 -7--------10-9----5----/9-5-7----3----5-7-9---5----/9-5-7--|
 -7----------------5--------------3------------5------------|
 -7----------------5--------------3------------5------------|
 -----------------------------------------------------------|
 -----------------------------------------------------------|
 ------/12--------------------------------------------------|
 -7--------10-9----5----/9-5-7----3----5-7-9---5----/9-5-7--|
 -7----------------5--------------3------------5------------|
 -7----------------5--------------3------------5------------|

 


 


 3:58


 + BOTH TAPPING RIFFS


 

 
 -----------------------------------------------------------|
 -----------------------------------------------------------|
 ------/12--------------------------------------------------|
 -7--------10-9----5----/9-5-7----3----5-7-9---5----/9-5-7--|
 -7----------------5--------------3------------5------------|
 -7----------------5--------------3------------5------------|
 -----------------------------------------------------------|
 -----------------------------------------------------------|
 ------/12--------------------------------------------------|
 -7--------10-9----5----/9-5-7----3----5-7-9---5----/9-5-7--|
 -7----------------5--------------3------------5------------|
 -7----------------5--------------3------------5------------|

 


 


 


 4:12


 

 
 -------------------------------------------------------------|
 -------------------------------------------------------------|
 ------/12----------------------------/12---------------------|
 -7--------10-9----5----/9-5-7---7--------10-9----5----/9-5-7-|
 -7----------------5-------------7----------------5-----------|
 -7----------------5-------------7----------------5-----------|
 -------------------------------------------------------------|
 -------------------------------------------------------------|
 ------/12----------------------------/12---------------------|
 -7--------10-9----5----/9-5-7---7--------10-9----5----/9-5-7-|
 -7----------------5-------------7----------------5-----------|
 -7----------------5-------------7----------------5-----------|

 


 


 


 L


 

 
 ---------------------------------|
 ----PH)(-------------------------|
 ----9----PH--------PH)(-PH-------|
 -7-------9~----5---9-----7~------|
 -7-------------5-----------------|
 -7-------------5-----------------|


Important: The song above is NOT stored on the Chordie server. The original song is hosted at www.guitaretab.com. Chordie works as a search engine and provides on-the-fly formatting. Chordie does not index songs against artists'/composers' will. To remove this song please click here.

This song is displayed as text-only. Transposing and tuning is only available for chordpro-songs.
Rate #1 of 2 versions

Login - add to songbook

SHARE PAGE  



You need to log in to post comments