Guitar Tabs, Chords and Lyrics
Server problems seems to be fixed. Chordie has been experiencing problems with songs disappearing. These issues now seems to be fixed, but still verifying the fix. If you find anything strange, please email admin@chordie.com.


Blackout  Parkway Drive

[B-F#-B-E-G#-C#]  
TABBED BY andherembrace
[1]  
 
 ---------------------------------------------------------------------|
 ---------------------------------------------------------------------|
 ------------_----------------_----------------_----------------_-----|
 -----0-----/ \--5----^------/ \--5----^------/ \--5----^------/ \----|
 -0-0-0----0-5-8---7-5-7-3--0-5-8---7-5-7-1--0-5-8---7-5-7-3--0-7-8-5-|
 -0-0-0-|-------------------------------------------------------------|

* *
[2]  
 
 ----------------------------------------------------------------------|
 ----------------------------------------------------------------------|
 ----------------------------------------------------------------_-----|
 -----0---------------------------------------------------------/ \----|
 -0-0-0--------------------------------------------------------0-7-8-5-|
 -0-0-0-|--------------------------------------------------------------|

* *
[B]  
 
 ---------------------------------------------------------------------|
 ---------------------------------------------------------------------|
 ------------_----------------_----------------_----------------_-----|
 -----0-----/ \--5----^------/ \--5----^------/ \--5----^------/ \----|
 -0-0-0----0-5-8---7-5-7-3--0-5-8---7-5-7-1--0-5-8---7-5-7-3--0-7-8-5-|
 -0-0-0-|-------------------------------------------------------------|

* *
 
 ---------------------------------------------------------------------|
 ---------------------------------------------------------------------|
 ------------_----------------_----------------_----------------_-----|
 -----0-----/ \--5----^------/ \--5----^------/ \--5----^------/ \----|
 -0-0-0----0-5-8---7-5-7-3--0-5-8---7-5-7-1--0-5-8---7-5-7-3--0-7-8-5-|
 -0-0-0-|-------------------------------------------------------------|

* *
0:14
 
 -------------------------------------------------------|
 -------------------------------------------------------|
 -------------------------------------------------------|
 -00-00--------5------00-00----00-00--------5-----00-00-|
 -00-00--0-5-8---7-5--00-00----00-00--0-5-8---7-5-00-00-|
 -00-00---------------00-00----00-00--------------00-00-|

** ** ** ** ** ** ** **
 
 -------------------------------------------------------|
 -------------------------------------------------------|
 -------------------------------------------------------|
 -00-00--------5------00-00----00-00--------5-----00-00-|
 -00-00--0-5-8---7-5--00-00----00-00--0-5-8---7-5-00-00-|
 -00-00---------------00-00----00-00--------------00-00-|

** ** ** ** ** ** ** **
0:25
L L L R R R
 
 --------------------------------------------------------------------|
 --------------------------------------------------------------------|
 --------------------------------------------------------------------|
 -00-00--------5------00-0----------00-00--------5-----00-0----------|
 -00-00--0-5-8---7-5--00-0----------00-00--0-5-8---7-5-00-0----------|
 -00-00---------------00-0-0|-0|-0|-00-00--------------00-0-0|-0|-0|-|

** ** ** * ** ** ** *
L L L
 
 --------------------------------------------------------------|
 --------------------------------------------------------------|
 --------------------------------------------------------------|
 -00-00--------5------00-0----------00-00--------5-----00-00---|
 -00-00--0-5-8---7-5--00-0----------00-00--0-5-8---7-5-00-00---|
 -00-00---------------00-0-0|-0|-0|-00-00--------------00-00---|

** ** ** * ** ** ** **
0:35
 
 ------------------------------------------------------------------|
 ------------------------------------------------------------------|
 --------------------------------------------------101010--121212--|
 -7-------------------7-------5---7----------------101010--121212--|
 -------8---10---5--8---8-7-8---7-------8---10---5--8-8-8--101010--|
 ---0-0---0----0--------------------0-0---0----0-------------------|

* * * * * * * *
 
 ------------------------------------------------------------------|
 ------------------------------------------------------------------|
 ------------------------------------------------------------------|
 -7-------------------7-------5---7--------------------------------|
 -------8---10---5--8---8-7-8---7-------8---10---3---7-8-10-8-7-5--|
 ---0-0---0----0--------------------0-0---0----0-------------------|

* * * * * * * *
0:45
L
 
 ---------------------------------------------------------------------|
 -----------------------------------------------------------_---------|
 ----------------------------------------------------------/ \--------|
 -7-------------------7-------5---7-----------------8-7-5-5-7-5-------|
 -------8---10---5--8---8-7-8---7-------8---10---5--------------7-8---|
 ---0-0---0----0--------------------0-0---0----0----------------------|

* * * * * * * *
R
 
 -------------------------------------------------------------------|
 -------------------------------------------------------------------|
 -----------------------------------------------------------_-------|
 ----------------7-7-10-7-5-7-8-5----------------7---------/ \------|
 -8-----5----7--------------------8-----5----7-----10-8-7-7-8-7-3-5-|
 ---0-0---0----0--------------------0-0---0----0--------------------|

* * * * * * * *
L
 
 ---------------------------------------------------------------------|
 -----------------------------------------------------------_---------|
 ----------------------------------------------------------/ \--------|
 -7-------------------7-------5---7-----------------8-7-5-5-7-5-------|
 -------8---10---5--8---8-7-8---7-------8---10---5--------------7-8---|
 ---0-0---0----0--------------------0-0---0----0----------------------|

* * * * * * * *
R
 
 -------------------------------------------------------------------|
 -------------------------------------------------------------------|
 -----------------------------------------------------------_-------|
 ----------------7-7-10-7-5-7-8-5----------------7---------/ \------|
 -8-----5----7--------------------8-----5----7-----10-8-7-7-8-7-3-5-|
 ---0-0---0----0--------------------0-0---0----0--------------------|

* * * * * * * *
 
 ----------------|
 ----------------|
 ----------------|
 -0-0-0--0-0-0---|
 -0-0-0--0-0-0---|
 -0-0-0--0-0-0---|

* * * * * *
0:59
 
 -------------------------------------------------------------------|
 -------------------------------------------------------------------|
 ------------------------------^---------------------------------^--|
 -0-0-0---0-0-0---00000---0-0-0-1---0-0-0---00000---0-0-0---0-0-0-1-|
 -0-0-0---0-0-0---00000---0-0-0-1---0-0-0---00000---0-0-0---0-0-0-1-|
 -0-0-0---0-0-0---00000---0-0-0-1---0-0-0---00000---0-0-0---0-0-0-1-|

* * * * * * ***** * * * * * ***** * * * * *
L
 
 ----------------------------------------------------------------------|
 ---------9--------9---------------------------------------------------|
 --------12-------12--------------^------------------------------------|
 -00000-----0-0-0----00000---0-0-0-1---00000---0-0-0-------------7-----|
 -00000-----0-0-0----00000---0-0-0-1---00000---0-0-0---3--7-8-10---10-8|
 -00000-----0-0-0----00000---0-0-0-1---00000---0-0-0-------------------|

***** * * * * * * * * ***** * * *
R
 
 ----------------------------------------------------------------------|
 ----------------------------------------------------------------------|
 ---------------------------------^------------------------------------|
 -00000-----0-0-0----00000---0-0-0-1---00000---0-0-0-------------------|
 -00000-----0-0-0----00000---0-0-0-1---00000---0-0-0---3--7-8-10-8-7-5-|
 -00000-----0-0-0----00000---0-0-0-1---00000---0-0-0-------------------|

***** * * * * * * * * ***** * * *
1:12
 
 --------------------------------------------------------------------|
 --------------------------------------------------------------------|
 --------------------------------------------------------------------|
 -----0-------0-------0---1-3-3-4-------0-------0-------0---1-3-3-4--|
 -0-0-0---0-0-0---0-0-0---1-1-3-4---0-0-0---0-0-0---0-0-0---1-1-3/4--|
 -0-0-0---0-0-0---0-0-0---1---3/4---0-0-0---0-0-0---0-0-0---1---3/4--|

* * * * * * * * * * * *
L
 
 ----------------------------------------------------------------------|
 ----------------------------------------------------------------------|
 ----------------------------------------------------------------------|
 ------0-------0--------0---1-3-3-4-----------------------------7------|
 -0000-0---0-0-0---0000-0---1-1-3/4---0-0-0---0-0-0---3--7-8-10---10-8-|
 -0000-0---0-0-0---0000-0---1---3/4---0-0-0---0-0-0--------------------|

**** * * **** * * * * * *
R
 
 ----------------------------------------------------------------------|
 ----------------------------------------------------------------------|
 ----------------------------------------------------------------------|
 ------0-------0--------0---1-3-3-4------------------------------------|
 -0000-0---0-0-0---0000-0---1-1-3/4---0-0-0---0-0-0---3--7-8-10-8-7-5--|
 -0000-0---0-0-0---0000-0---1---3/4---0-0-0---0-0-0--------------------|

**** * * **** * * * * * *
1:27
 
 ------------------------------------------------------------------|
 ------------------------------------------------------------------|
 --------------------------------------------------101010--121212--|
 -7-------------------7-------5---7----------------101010--121212--|
 -------8---10---5--8---8-7-8---7-------8---10---5--8-8-8--101010--|
 ---0-0---0----0--------------------0-0---0----0-------------------|

* * * * * * * *
 
 ------------------------------------------------------------------|
 ------------------------------------------------------------------|
 ------------------------------------------------------------------|
 -7-------------------7-------5---7--------------------------------|
 -------8---10---5--8---8-7-8---7-------8---10---3---7-8-10-8-7-5--|
 ---0-0---0----0--------------------0-0---0----0-------------------|

* * * * * * * *
L
 
 ---------------------------------------------------------------------|
 -----------------------------------------------------------_---------|
 ----------------------------------------------------------/ \--------|
 -7-------------------7-------5---7-----------------8-7-5-5-7-5-------|
 -------8---10---5--8---8-7-8---7-------8---10---5--------------7-8---|
 ---0-0---0----0--------------------0-0---0----0----------------------|

* * * * * * * *
R
 
 -------------------------------------------------------------------|
 -------------------------------------------------------------------|
 -----------------------------------------------------------_-------|
 ----------------7-7-10-7-5-7-8-5----------------7---------/ \------|
 -8-----5----7--------------------8-----5----7-----10-8-7-7-8-7-3-5-|
 ---0-0---0----0--------------------0-0---0----0--------------------|

* * * * * * * *
L
 
 ---------------------------------------------------------------------|
 -----------------------------------------------------------_---------|
 ----------------------------------------------------------/ \--------|
 -7-------------------7-------5---7-----------------8-7-5-5-7-5-------|
 -------8---10---5--8---8-7-8---7-------8---10---5--------------7-8---|
 ---0-0---0----0--------------------0-0---0----0----------------------|

* * * * * * * *
R
 
 -------------------------------------------------------------------|
 -------------------------------------------------------------------|
 -----------------------------------------------------------_-------|
 ----------------7-7-10-7-5-7-8-5----------------7---------/ \------|
 -8-----5----7--------------------8-----5----7-----10-8-7-7-8-7-3-5-|
 ---0-0---0----0--------------------0-0---0----0--------------------|

* * * * * * * *
1:47
 
 ---------------------------------------------------------------|
 ---------------------------------------------------------------|
 ----------------------------------------------L------R---------|
 ----------------------------------------------P------P---------|
 -0---------------------------0-----------------S------S--------|
 -0---------------------------0------------------\------\-------|

1:58
[1]  
 
 ----------------------------------------------------|
 ----------------------------------------------------|
 ---___________________________________________------|
 --/ \-----|
 -0-3-5-7-5-3-0-3-5-7-5-3-0-3-5-7-5-3-0-3-5-7-5-3----|
 ----------------------------------------------------|

[2]  
 
 -------------------------------------------------------|
 -------------------------------------------------------|
 -------------------------------------------------------|
 -------------------------------------------------------|
 -0-0-0-0-0-0-0-0-0-0----------------------0-0-0-0------|
 -0-0-0-0-0-0-0-0-0-0----------------------0-0-0-0------|

* * * * * * * * * * * * * *
[1]  
 
 ----------------------------------------------------|
 ----------------------------------------------------|
 ---___________________________________________------|
 --/ \-----|
 -0-5-7-8-7-5-0-5-7-8-7-5-0-5-7-8-7-5-0-5-7-8-7-5----|
 ----------------------------------------------------|

[2]  
 
 -------------------------------------------------------|
 -------------------------------------------------------|
 -------------------------------------------------------|
 -------------------------------------------------------|
 -0-0-0-0-0-0-0-0-0-0----------------------0-0-0-0------|
 -0-0-0-0-0-0-0-0-0-0----------------------0-0-0-0------|

* * * * * * * * * * * * * *
[1]  
 
 ------------------------------------------------------|
 ---_______________________________________________----|

--/ \---|
 
 -0-7-8-10-8-7-0-7-8-10-8-7-0-7-8-10-8-7-0-7-8-10-8-7--|
 ------------------------------------------------------|
 ------------------------------------------------------|

[2]  
 
 -------------------------------------------------------|
 -------------------------------------------------------|
 -------------------------------------------------------|
 -------------------------------------------------------|
 -0-0-0-0-0-0-0-0-0-0----------------------0-0-0-0------|
 -0-0-0-0-0-0-0-0-0-0----------------------0-0-0-0------|

* * * * * * * * * * * * * *
[1]  
 
 --------------------------------------------------|
 ---___________________________________________----|

--/ \---|
 
 -0-5-7-8-7-5-0-5-7-8-7-5-0-5-7-8-7-5-0-5-7-8-7-5--|
 --------------------------------------------------|
 --------------------------------------------------|

[2]  
 
 -------------------------------------------------------|
 -------------------------------------------------------|
 -------------------------------------------------------|
 -------------------------------------------------------|
 -0-0-0-0-0-0-0-0-0-0----------------------0-0-0-0------|
 -0-0-0-0-0-0-0-0-0-0----------------------0-0-0-0------|

* * * * * * * * * * * * * *
2:08
[1]  
 
 ----------------------------------------------------|
 ----------------------------------------------------|
 ---___________________________________________------|
 --/ \-----|
 -0-3-5-7-5-3-0-3-5-7-5-3-0-3-5-7-5-3-0-3-5-7-5-3----|
 ----------------------------------------------------|

[2]  
 
 ------------------------------------------------------|
 ------------------------------------------------------|
 ---_______________________________________________----|

--/ \---|
 
 -0-7-8-10-8-7-0-7-8-10-8-7-0-7-8-10-8-7-0-7-8-10-8-7--|
 ------------------------------------------------------|

[1]  
 
 ----------------------------------------------------|
 ----------------------------------------------------|
 ---___________________________________________------|
 --/ \-----|
 -0-5-7-8-7-5-0-5-7-8-7-5-0-5-7-8-7-5-0-5-7-8-7-5----|
 ----------------------------------------------------|

[2]  
 
 ---------------------------------------------------------------|
 ---------------------------------------------------------------|
 ---_______________________________________________________-----|
 --/ \----|
 -0-8-10-12-10-8-0-8-10-12-10-8-0-8-10-12-10-8-0-8-10-12-10-8---|
 ---------------------------------------------------------------|

[1]  
 
 ------------------------------------------------------|
 ---_______________________________________________----|

--/ \---|
 
 -0-7-8-10-8-7-0-7-8-10-8-7-0-7-8-10-8-7-0-7-8-10-8-7--|
 ------------------------------------------------------|
 ------------------------------------------------------|

[2]  
 
 ------------------------------------------------------|
 ------------------------------------------------------|
 ---_______________________________________________----|

--/ \---|
 
 -0-7-8-10-8-7-0-7-8-10-8-7-0-7-8-10-8-7-0-7-8-10-8-7--|
 ------------------------------------------------------|

[1]  
 
 --------------------------------------------------|
 ---___________________________________________----|

--/ \---|
 
 -0-5-7-8-7-5-0-5-7-8-7-5-0-5-7-8-7-5-0-5-7-8-7-5--|
 --------------------------------------------------|
 --------------------------------------------------|

[2]  
 
 ---------------------------------------------------------------|
 ---_______________________________________________________-----|
 --/ \----|
 -0-8-10-12-10-8-0-8-10-12-10-8-0-8-10-12-10-8-0-8-10-12-10-8---|
 ---------------------------------------------------------------|
 ---------------------------------------------------------------|

2:19
 
 ------------------------------------------|
 ------------------------------------------|
 ------------------------------------------|
 -0-------0-------0------------------------|
 -0--0-0--0--0-0--0--0-0-----0-0--0-0------|
 -0--0-0--0--0-0--0--0-0-----0-0--0-0------|

* * * * * * * * * *
 
 ----------------------------------------------------------|
 ----------------------------------------------------------|
 ----------------------------------------------------------|
 -0-------0-------0----------------------------------------|
 -0--0-0--0--0-0--0--0-0-----0-0--0-0----------------------|
 -0--0-0--0--0-0--0--0-0-----0-0--0-0----000-0-000-0-000---|

* * * * * * * * * * *** * *** * ***
2:29
[1]  
 
 -------------------------------------------------------------------|
 -------------------------------------------------------------------|
 ---____________________________________________________________----|

--/ \---|
-0235753202357532023575320235753203578753035787530357875303578753--|
 
 -----T-------T-------T-------T-------T-------T-------T-------T-----|

[2]  
 
 --------------------------------------------|
 --------------------------------------------|
 --------------------------------------------|
 -0-------0-------0--------------------------|
 -0--0-0--0--0-0--0--0-0-------0-0--0-0------|
 -0--0-0--0--0-0--0--0-0-------0-0--0-0------|

* * * * * * * * * *
2:35
[1]  
 
 ----------------------------------------------------------|
 ----------------------------------------------------------|
 -T/\-------T/\-------T/\---------____________________-----|
 -7532-T/\--7532-T/\--7532-T/\---/ \----|
 ------7532------7532------7532-035787530235753202357532---|
 ----------------------------------------------------------|

[2]  
 
 --------------------------------------------|
 --------------------------------------------|
 --------------------------------------------|
 -0-------0-------0--------------------------|
 -0--0-0--0--0-0--0--0-0-------0-0--0-0------|
 -0--0-0--0--0-0--0--0-0-------0-0--0-0------|

* * * * * * * * * *
[B]  
 
 -----------------|
 -----------------|
 -----------------|
 -----------------|
 -----------------|
 -000-0-000-0-000-|

*** * *** * ***

Important: The song above is NOT stored on the Chordie server. The original song is hosted at www.guitaretab.com. Chordie works as a search engine and provides on-the-fly formatting. Chordie does not index songs against artists'/composers' will. To remove this song please click here.

Text color:
Chord color:
Chord grids: 
Font size:    
Page size: 

B
Rate #2 of 2 versions

Jango Player

Login - add to songbook

SHARE PAGE  




You need to log in to post comments