Guitar Tabs, Chords and Lyrics
Major upgrade!! After one year development the new version of Chordie is now online! Please give feedback.


A Cold Day in Hell  Parkway Drive

[B-F#-B-E-G#-C#]  
TABBED BY andherembrace
[1]  
 
 -----------------------------------------------------------------|
 -----------------------------------------------------------------|
 -----------------------------------------------------------------|
 -4------------------------6---7----------------------------------|
 -0------------------------2---4----------------------------------|
 -0------------------------2---4----------------------------------|

[2]  
 
 ---------------------------------------------------------------------|
 ---------------------------------------------------------------------|
 --------------/\--6-^---/\--6-^--------------------/\--6-^---/\--9-7-|
 --7-6-7------0679--976-0679--976-------7-6-7------0679--976-0679-----|
 9-------9------------------------7---9-------9-----------------------|
 ---------------------------------------------------------------------|

0:06
[1]  
 
 ---------------------------------------------------------------------|
 ----------------------------------------------------------------^----|
 ---------------------------------------------------------------4-6-4-|
 11-----------------------11---6--------------------------------X-X-X-|
 -7------------------------7---2--------------------------------2/4-2-|
 -7------------------------7---2--------------------------------------|

[2]  
 
 ---------------------------------------------------------------------|
 ---------------------------------------------------------------------|
 --------------/\--6-^---/\--6-^--------------------/\--6-^---/\--9-7-|
 --7-6-7------0679--976-0679--976-------7-6-7------0679--976-0679-----|
 9-------9------------------------7---9-------9-----------------------|
 ---------------------------------------------------------------------|

[1]  
 
 -----------------------------------------------------------------|
 -----------------------------------------------------------------|
 -----------------------------------------------------------------|
 -4------------------------6---7----------------------------------|
 -0------------------------2---4----------------------------------|
 -0------------------------2---4----------------------------------|

[2]  
 
 ---------------------------------------------------------------------|
 ---------------------------------------------------------------------|
 --------------/\--6-^---/\--6-^--------------------/\--6-^---/\--9-7-|
 --7-6-7------0679--976-0679--976-------7-6-7------0679--976-0679-----|
 9-------9------------------------7---9-------9-----------------------|
 ---------------------------------------------------------------------|

[1]  
 
 ---------------------------------------------------------------------|
 ----------------------------------------------------------------^----|
 ---------------------------------------------------------------4-6-4-|
 11-----------------------11---6--------------------------------X-X-X-|
 -7------------------------7---2--------------------------------2/4-2-|
 -7------------------------7---2--------------------------------------|

[2]  
 
 ---------------------------------------------------------------------|
 ---------------------------------------------------------------------|
 --------------/\--6-^---/\--6-^--------------------/\--6-^---/\--9-7-|
 --7-6-7------0679--976-0679--976-------7-6-7------0679--976-0679-----|
 9-------9------------------------7---9-------9-----------------------|
 ---------------------------------------------------------------------|

0:24
[1]  
 
 -----------------------------------------------------------------|
 -----------------------------------------------------------------|
 -----------------------------------------------------------------|
 -4------------------------6---7----------------------------------|
 -0------------------------2---4----------------------------------|
 -0------------------------2---4----------------------------------|

[2]  
 
 ---------------------------------------------------------------------|
 ---------------------------------------------------------------------|
 --------------/\--6-^---/\--6-^--------------------/\--6-^---/\--9-7-|
 --7-6-7------0679--976-0679--976-------7-6-7------0679--976-0679-----|
 9-------9------------------------7---9-------9-----------------------|
 ---------------------------------------------------------------------|

HARMONY
 
 -------------------------------------------------------------------------|
 -------------_------------_------------------------_------------_--------|
 ------------/ \--9-------/ \--9-------------------/ \--9-------/ \--13-11|
 --11-9-11--091112-12119-091112-12119----11-9-11--091112-12119-091112-----|
 12-------12-------------------------1112-------12------------------------|
 -------------------------------------------------------------------------|

[1]  
 
 ---------------------------------------------------------------------|
 ----------------------------------------------------------------^----|
 ---------------------------------------------------------------4-6-4-|
 11-----------------------11---6--------------------------------X-X-X-|
 -7------------------------7---2--------------------------------2/4-2-|
 -7------------------------7---2--------------------------------------|

[2]  
 
 ---------------------------------------------------------------------|
 ---------------------------------------------------------------------|
 --------------/\--6-^---/\--6-^--------------------/\--6-^---/\--9-7-|
 --7-6-7------0679--976-0679--976-------7-6-7------0679--976-0679-----|
 9-------9------------------------7---9-------9-----------------------|
 ---------------------------------------------------------------------|

HARMONY
 
 ------------------------------------------------------------------------|
 -------------_------------_------------------------_------------_-------|
 ------------/ \--9-------/ \--9-------------------/ \--9-------/ \--1311|
 --11-9-11--091112-12119-091112-12119----11-9-11--091112-12119-091112----|
 12-------12-------------------------1112-------12-----------------------|
 ------------------------------------------------------------------------|
 ---------------------------------------------------------------|
 ---------------------------------------------------------------|
 ---------------------------------------------------------------|
 -0------------------------------------------------P------------|
 -0-------------------------------------------------S-----------|
 -0--------------------------------------------------\----------|

0:40
[1]  
 
 ----------------------------------------------------------------------|
 ----------------------------------------------------------------------|
 ----------------------------------------------------------------------|
 -----------------7777----10101010-----------------------------5-7-----|
 ---------------------8888--------7777-----------------0-5-7-8-----8-7-|
 -0-000-0-0-0-0-0----------------------0-000-0-0-0-0-0-----------------|

*** * * *** * *
[B]  
 
 -----------------------------------------------------------------------|
 -----------------------------------------------------------------------|
 --------5-------2-------------------------5--------2-----------/\------|
 ------------3------------5-------2-------------3------------5-3737-/\--|
 -----------------------------3------------------------------------3737-|
 -3-333----3---3----3-333---3---3----3-333----3---3----3-333------------|

*** * * *** * * *** * * ***
0:50
L
 
 -----------------------------------------------------------------------|
 -----------------------------------------------------------------------|
 -----------------------------------------------------------------------|
 ----------------7777----10101010---------------------7------7----------|
 --------------------8888--------7777-------------------8-10---10-8-7-5-|
 0-000-0-0-0-0-0----------------------0-000-0-0-0-0-0-------------------|

*** * * *** * *
R
 
 ------------------------------------------------------------------------|
 ------------------------------------------------------------------------|
 ------------------------------------------------------------------------|
 ----------------7777----10101010----------------------10-7-8-10-8-7-----|
 ---------------------8888--------7777------------------------------10-8-|
 0-000-0-0-0-0-0----------------------0-000-0-0-0-0-0--------------------|

*** * * *** * *
L
 
 ----------------------------------------------------------------------|
 ----------------------------------------------------------------------|
 ----------------------------------------------------------------------|
 -----------------7777----10101010-----------------------------5-7-----|
 ---------------------8888--------7777-----------------0-5-7-8-----8-7-|
 -0-000-0-0-0-0-0----------------------0-000-0-0-0-0-0-----------------|

*** * * *** * *
R
 
 -----------------------------------------------------------------------|
 -----------------------------------------------------------------------|
 -----------------------------------------------------------------------|
 ----------------7777----10101010------------------------------8-10-----|
 --------------------8888--------7777-----------------0-8-10-12----12-10|
 0-000-0-0-0-0-0----------------------0-000-0-0-0-0-0-------------------|

*** * * *** * *
[B]  
 
 -----------------------------------------------------------------------|
 -----------------------------------------------------------------------|
 --------5-------2-------------------------5--------2-----------/\------|
 ------------3------------5-------2-------------3------------5-3737-/\--|
 -----------------------------3------------------------------------3737-|
 -3-333----3---3----3-333---3---3----3-333----3---3----3-333------------|

*** * * *** * * *** * * ***
1:04
L
 
 -------------------------------------------------------|
 -------------------------------------------------------|
 -------------------------------------------------------|
 -------------------------------------------------------|
 -------------------------------------------------------|
 -8-8-8-8-8-8-8-8-8-8-8-8-8-8-8-8-8-8-10-10-10-10-10-10-|

* * * * * * * * * * * * * * * * * * * * * * * *
R
 
 ------------------------------------------------------------------|
 ------------------------------------------------------------------|
 ------------------------------------------------------------------|
 7-7-7-7-------------------7-7-7-7-------------------7-7-7-7-------|
 -------8-8-8-8-10-10-10-10-------8-8-8-8-10-10-10-10-------8-8-8-8|
 ------------------------------------------------------------------|

L
 
 --------------------------------------------------|
 --------------------------------------------------|
 --------------------------------------------------|
 --------------------------------------------------|
 --------------------------------------------------|
 -2-2-2-2-2-2-2-2-2-2-2-2-3-3-3-3-3-3-0-0-0-0-0-0--|

* * * * * * * * * * * * * * * * * * * * * * * *
R
 
 --------------------------------------------------------------|
 --------------------------------------------------------------|
 --------------------------------------------------------------|
 5-5-5-5---------------5-5-5-5---------------------------------|
 --------7-7-7-7-8-8-8---------8-8-8-8-7-7-7-7-5-5-5-5-3-3-3-3-|
 --------------------------------------------------------------|

L
 
 -------------------------------------------------------|
 -------------------------------------------------------|
 -------------------------------------------------------|
 -------------------------------------------------------|
 -------------------------------------------------------|
 -8-8-8-8-8-8-8-8-8-8-8-8-8-8-8-8-8-8-10-10-10-10-10-10-|

* * * * * * * * * * * * * * * * * * * * * * * *
R
 
 ------------------------------------------------------------------|
 ------------------------------------------------------------------|
 ------------------------------------------------------------------|
 7-7-7-7-------------------7-7-7-7-------------------7-7-7-7-------|
 -------8-8-8-8-10-10-10-10-------8-8-8-8-10-10-10-10-------8-8-8-8|
 ------------------------------------------------------------------|

L
 
 ------------------------------------------------|
 ------------------------------------------------|
 ------------------------------------------------|
 ------------------------------------------------|
 --------------------------------------PH--------|
 -2-2-2-2-2-2-2-2-2-2-2-2-3-3-3-3-3-3--3-~-------|

* * * * * * * * * * * * * * * * * *
R
 
 ----------------------------------------------------|
 ----------------------------------------------------|
 ----------------------------------------------------|
 5-5-5-5---------------5-5-5-5-----------------------|
 --------7-7-7-7-8-8-8---------8-8-8-8-7-7-7-7-PH----|
 ----------------------------------------------3-~~--|

1:14
L
 
 -----------------------------------------------------------------------|
 -----------------------------------------------------------------------|
 -----------------------------------------------------------------------|
 ----------------7777----10101010---------------------7------7----------|
 --------------------8888--------7777-------------------8-10---10-8-7-5-|
 0-000-0-0-0-0-0----------------------0-000-0-0-0-0-0-------------------|

*** * * *** * *
R
 
 ------------------------------------------------------------------------|
 ------------------------------------------------------------------------|
 ------------------------------------------------------------------------|
 ----------------7777----10101010----------------------10-7-8-10-8-7-----|
 ---------------------8888--------7777------------------------------10-8-|
 0-000-0-0-0-0-0----------------------0-000-0-0-0-0-0--------------------|

*** * * *** * *
L
 
 ----------------------------------------------------------------------|
 ----------------------------------------------------------------------|
 ----------------------------------------------------------------------|
 -----------------7777----10101010-----------------------------5-7-----|
 ---------------------8888--------7777-----------------0-5-7-8-----8-7-|
 -0-000-0-0-0-0-0----------------------0-000-0-0-0-0-0-----------------|

*** * * *** * *
R
 
 -----------------------------------------------------------------------|
 -----------------------------------------------------------------------|
 -----------------------------------------------------------------------|
 ----------------7777----10101010------------------------------8-10-----|
 --------------------8888--------7777-----------------0-8-10-12----12-10|
 0-000-0-0-0-0-0----------------------0-000-0-0-0-0-0-------------------|

*** * * *** * *
[B]  
 
 -----------------------------------------------------------------------|
 -----------------------------------------------------------------------|
 --------5-------2-------------------------5--------2-----------/\------|
 ------------3------------5-------2-------------3------------5-3737-/\--|
 -----------------------------3------------------------------------3737-|
 -3-333----3---3----3-333---3---3----3-333----3---3----3-333------------|

*** * * *** * * *** * * ***
1:28
L
 
 -------------------------------------------------------|
 -------------------------------------------------------|
 -------------------------------------------------------|
 -------------------------------------------------------|
 -------------------------------------------------------|
 -8-8-8-8-8-8-8-8-8-8-8-8-8-8-8-8-8-8-10-10-10-10-10-10-|

* * * * * * * * * * * * * * * * * * * * * * * *
R
 
 ------------------------------------------------------------------|
 ------------------------------------------------------------------|
 ------------------------------------------------------------------|
 7-7-7-7-------------------7-7-7-7-------------------7-7-7-7-------|
 -------8-8-8-8-10-10-10-10-------8-8-8-8-10-10-10-10-------8-8-8-8|
 ------------------------------------------------------------------|

L
 
 --------------------------------------------------|
 --------------------------------------------------|
 --------------------------------------------------|
 --------------------------------------------------|
 --------------------------------------------------|
 -2-2-2-2-2-2-2-2-2-2-2-2-3-3-3-3-3-3-0-0-0-0-0-0--|

* * * * * * * * * * * * * * * * * * * * * * * *
R
 
 --------------------------------------------------------------|
 --------------------------------------------------------------|
 --------------------------------------------------------------|
 5-5-5-5---------------5-5-5-5---------------------------------|
 --------7-7-7-7-8-8-8---------8-8-8-8-7-7-7-7-5-5-5-5-3-3-3-3-|
 --------------------------------------------------------------|

L
 
 -------------------------------------------------------|
 -------------------------------------------------------|
 -------------------------------------------------------|
 -------------------------------------------------------|
 -------------------------------------------------------|
 -8-8-8-8-8-8-8-8-8-8-8-8-8-8-8-8-8-8-10-10-10-10-10-10-|

* * * * * * * * * * * * * * * * * * * * * * * *
R
 
 ------------------------------------------------------------------|
 ------------------------------------------------------------------|
 ------------------------------------------------------------------|
 7-7-7-7-------------------7-7-7-7-------------------7-7-7-7-------|
 -------8-8-8-8-10-10-10-10-------8-8-8-8-10-10-10-10-------8-8-8-8|
 ------------------------------------------------------------------|

L
 
 --------------------------------------------------|
 --------------------------------------------------|
 --------------------------------------------------|
 --------------------------------------------------|
 --------------------------------------------------|
 -2-2-2-2-2-2-2-2-2-2-2-2-3-3-3-3-3-3-0-0-0-0-0-0--|

* * * * * * * * * * * * * * * * * * * * * * * *
R
 
 --------------------------------------------------------------|
 --------------------------------------------------------------|
 --------------------------------------------------------------|
 5-5-5-5---------------5-5-5-5---------------------------------|
 --------7-7-7-7-8-8-8---------8-8-8-8-7-7-7-7-5-5-5-5-3-3-3-3-|
 --------------------------------------------------------------|

1:39
RYTHM
 
 -------------------------------------------------------|
 -------------------------------------------------------|
 -------------------------------------------------------|
 -------------------------------------------------------|
 -------------------------------------------------------|
 -8-8-8-8-8-8-8-8-8-8-8-8-8-8-8-8-8-8-10-10-10-10-10-10-|

* * * * * * * * * * * * * * * * * * * * * * * *
L
 
 ------------------------------------------------------------------|
 ------------------------------------------------------------------|
 ------------------------------------------------------------------|
 7-7-7-7-------------------7-7-7-7-------------------7-7-7-7-------|
 -------8-8-8-8-10-10-10-10-------8-8-8-8-10-10-10-10-------8-8-8-8|
 ------------------------------------------------------------------|

R
 
 -------------------------------------------------------------------|
 -------------------------------------------------------------------|
 -------------------------------------------------------------------|
 10101010-----------------10101010------------------10101010--------|
 ---------1212121213131313---------1212121213131313---------12121212|
 -------------------------------------------------------------------|

RYTHM
 
 --------------------------------------------------|
 --------------------------------------------------|
 --------------------------------------------------|
 --------------------------------------------------|
 --------------------------------------------------|
 -2-2-2-2-2-2-2-2-2-2-2-2-3-3-3-3-3-3-0-0-0-0-0-0--|

* * * * * * * * * * * * * * * * * * * * * * * *
L
 
 --------------------------------------------------------------|
 --------------------------------------------------------------|
 --------------------------------------------------------------|
 5-5-5-5---------------5-5-5-5---------------------------------|
 --------7-7-7-7-8-8-8---------8-8-8-8-7-7-7-7-5-5-5-5-3-3-3-3-|
 --------------------------------------------------------------|

R
 
 -----------------------------------------------------------------|
 -----------------------------------------------------------------|
 -----------------------------------------------------------------|
 14141414--------14141414--------15151515141414141212121210101010-|
 --------12121212--------12121212---------------------------------|
 -----------------------------------------------------------------|

RYTHM
 
 -------------------------------------------------------|
 -------------------------------------------------------|
 -------------------------------------------------------|
 -------------------------------------------------------|
 -------------------------------------------------------|
 -8-8-8-8-8-8-8-8-8-8-8-8-8-8-8-8-8-8-10-10-10-10-10-10-|

* * * * * * * * * * * * * * * * * * * * * * * *
L
 
 ------------------------------------------------------------------|
 ------------------------------------------------------------------|
 ------------------------------------------------------------------|
 7-7-7-7-------------------7-7-7-7-------------------7-7-7-7-------|
 -------8-8-8-8-10-10-10-10-------8-8-8-8-10-10-10-10-------8-8-8-8|
 ------------------------------------------------------------------|

R
 
 -------------------------------------------------------------------|
 -------------------------------------------------------------------|
 -------------------------------------------------------------------|
 10101010-----------------10101010------------------10101010--------|
 ---------1212121213131313---------1212121213131313---------12121212|
 -------------------------------------------------------------------|

RYTHM
 
 --------------------------------------------------|
 --------------------------------------------------|
 --------------------------------------------------|
 --------------------------------------------------|
 --------------------------------------------------|
 -2-2-2-2-2-2-2-2-2-2-2-2-3-3-3-3-3-3-0-0-0-0-0-0--|

* * * * * * * * * * * * * * * * * * * * * * * *
L H
 
 --------------------------------------------------------9-----|
 --------------------------------------------------------9-----|
 --------------------------------------------------------H-----|
 5-5-5-5---------------5-5-5-5---------------------------------|
 --------7-7-7-7-8-8-8---------8-8-8-8-7-7-7-7-5-5-5-5---------|
 --------------------------------------------------------------|

R H
 
 ----------------------------------------------------------9------|
 ----------------------------------------------------------9------|
 ----------------------------------------------------------H------|
 14141414--------14141414--------151515151414141412121212---------|
 --------12121212--------12121212---------------------------------|
 -----------------------------------------------------------------|

1:49
R
 
 -------------------------------------------------------------|
 -------------------------------------------------------------|
 ---------------------------------___---------_-----_---------|
 -00--00--00-00--00--00---^------/ \---7---/ \---/ \--------|
 -00--00--00-00--00--00--8-7----7-8-7-10---10-8-7-7-8-7-------|
 -00--00--00-00--00--00------10-------------------------10----|

** ** ** ** ** **
L
 
 -------------------------------------------------------------|
 -------------------------------------------------------------|
 ---------------------------------___---------_-----_---------|
 -00--00--00-00--00--00---^------/ \---7---/ \---/ \--------|
 -00--00--00-00--00--00--8-7----7-8-7-10---10-8-7-7-8-7-------|
 -00--00--00-00--00--00------10-------------------------10----|

** ** ** ** ** **
R
 
 -------------------------------------------------------------|
 -------------------------------------------------------------|
 ---------------------------------___---------_-----_---------|
 -00--00--00-00--00--00---^------/ \---7---/ \---/ \--------|
 -00--00--00-00--00--00--8-7----7-8-7-10---10-8-7-7-8-7-------|
 -00--00--00-00--00--00------10-------------------------10----|

** ** ** ** ** **
L
 
 -------------------------------------------------------------|
 -------------------------------------------------------------|
 ---------------------------------___---------_-----_---------|
 -00--00--00-00--00--00---^------/ \---7---/ \---/ \--------|
 -00--00--00-00--00--00--8-7----7-8-7-10---10-8-7-7-8-7-------|
 -00--00--00-00--00--00------10-------------------------10----|

** ** ** ** ** **
 
 ---------------------------|
 ---------------------------|
 ---------------------------|
 -00--00--00-00--00--00-----|
 -00--00--00-00--00--00-----|
 -00--00--00-00--00--00-----|

** ** ** ** ** **
R
 
 -------------------------------------------------------------|
 -------------------------------------------------------------|
 ---------------------------------___---------_-----_---------|
 -00--00--00-00--00--00---^------/ \---7---/ \---/ \--------|
 -00--00--00-00--00--00--8-7----7-8-7-10---10-8-7-7-8-7-------|
 -00--00--00-00--00--00------10-------------------------10----|

** ** ** ** ** **
 
 ---------------------------|
 ---------------------------|
 ---------------------------|
 -00--00--00-00--00--00-----|
 -00--00--00-00--00--00-----|
 -00--00--00-00--00--00-----|

** ** ** ** ** **
 
 ---------------------------|
 ---------------------------|
 ---------------------------|
 -00--00--00-00--00--00-----|
 -00--00--00-00--00--00-----|
 -00--00--00-00--00--00-----|

** ** ** ** ** **
2:16
[1]  
 
 -----------------------------------------------------------------|
 -----------------------------------------------------------------|
 -----------------------------------------------------------------|
 -4------------------------6---7----------------------------------|
 -0------------------------2---4----------------------------------|
 -0------------------------2---4----------------------------------|

[2]  
 
 ---------------------------------------------------------------------|
 ---------------------------------------------------------------------|
 --------------/\--6-^---/\--6-^--------------------/\--6-^---/\--9-7-|
 --7-6-7------0679--976-0679--976-------7-6-7------0679--976-0679-----|
 9-------9------------------------7---9-------9-----------------------|
 ---------------------------------------------------------------------|

[1]  
 
 ---------------------------------------------------------------------|
 ----------------------------------------------------------------^----|
 ---------------------------------------------------------------4-6-4-|
 11-----------------------11---6--------------------------------X-X-X-|
 -7------------------------7---2--------------------------------2/4-2-|
 -7------------------------7---2--------------------------------------|

[2]  
 
 ---------------------------------------------------------------------|
 ---------------------------------------------------------------------|
 --------------/\--6-^---/\--6-^--------------------/\--6-^---/\--9-7-|
 --7-6-7------0679--976-0679--976-------7-6-7------0679--976-0679-----|
 9-------9------------------------7---9-------9-----------------------|
 ---------------------------------------------------------------------|

2:28
[1]  
 
 -----------------------------------------------------------------|
 -----------------------------------------------------------------|
 -----------------------------------------------------------------|
 -4------------------------6----7---------------------------------|
 -0------------------------2----4---------------------------------|
 -0------------------------2----4---------------------------------|

[2]  
 
 -----------------------------------------------------------------|
 -----------------------------------------------------------------|
 --------------^-------------------6--------------6---------------|
 --7-6-7------69-7-6-7-----6-7-9-----9-7-6-7-----------7-6--------|
 9-------9-------------7-----------------------------------9------|
 -----------------------------------------------------------------|

2:34
[1]  
 
 ---------------------------------------------------------------------|
 ----------------------------------------------------------------^----|
 ---------------------------------------------------------------4-6-4-|
 11-----------------------11---6--------------------------------X-X-X-|
 -7------------------------7---2--------------------------------2/4-2-|
 -7------------------------7---2--------------------------------------|

[2]  
 
 --------------------------------------------------------------------|
 ----------------------------------------------------------_---------|
 -6-----9---------6---------------6-----9---------6-------/ \--------|
 ---7-6---7-7-6-7---7-6-7-9-7-6-7---7-6---7-7-6-7----9-7-6-7-6-------|
 --------------------------------------------------------------9-7-5-|
 --------------------------------------------------------------------|

2:40
[B] [1] [B]  
 
 ----------------------------------------------------------------|
 ---------------------------------------------------_------------|
 -----------------------------------------_--------/ \-----------|
 -------2---3---2-------0----2-----------/ \------5-7-5----------|
 -0-----------------3-----------3---2---5-7-5-3-5-------8-7-3--5-|
 -0-000---0---0---0---0---0---0---0---0--------------------------|

*** * * * * * * * *
[B] [1] [B]  
 
 -------------------------------------------------____-----____---|
 -----------------------------------------____---/ \---/ \--|
 ----------------------------------------/ \-25252525-04040404-|
 -------2---3---2-------5---7---3---2---23232323------------------|
 -0-----------------3---------------------------------------------|
 -0-000---0---0---0---0---0---0---0---0---------------------------|

*** * * * * * * * *
 
 ----------------------------------------------------------------|
 ---------------------------------------------------_------------|
 -----------------------------------------_--------/ \-----------|
 -------2---3---2-------0----2-----------/ \------5-7-5----------|
 -0-----------------3-----------3---2---5-7-5-3-5-------8-7-3--5-|
 -0-000---0---0---0---0---0---0---0---0--------------------------|

*** * * * * * * * *
 
 -------------------------------------------------____-----____---|
 -----------------------------------------____---/ \---/ \--|
 ----------------------------------------/ \-25252525-04040404-|
 -------2---3---2-------5---7---3---2---23232323------------------|
 -0-----------------3---------------------------------------------|
 -0-000---0---0---0---0---0---0---0---0---------------------------|

*** * * * * * * * *
2:58
L
 
 ----------------------------------------------------------------|
 ---------------------------------------------------_------------|
 -----------------------------------------_--------/ \-----------|
 -------2---3---2-------0----2-----------/ \------5-7-5----------|
 -0-----------------3-----------3---2---5-7-5-3-5-------8-7-3--5-|
 -0-000---0---0---0---0---0---0---0---0--------------------------|

*** * * * * * * * *
R
 
 ----------------------------------------------------------------|
 ---------------------------------------------------_------------|
 -----------------------------------------_--------/ \-----------|
 ----------------------------------------/ \------5-7-5----------|
 -0-------------------------------0-----5-7-5-3-5-------8-7-3--5-|
 -0-000---------------------------0-000--------------------------|

*** ***
L
 
 -------------------------------------------------____-----____---|
 -----------------------------------------____---/ \---/ \--|
 ----------------------------------------/ \-25252525-04040404-|
 -------2---3---2-------5---7---3---2---23232323------------------|
 -0-----------------3---------------------------------------------|
 -0-000---0---0---0---0---0---0---0---0---------------------------|

*** * * * * * * * *
R
 
 -------------------------------------------------____-----____---|
 -----------------------------------------____---/ \---/ \--|
 ----------------------------------------/ \-25252525-04040404-|
 ---------------------------------------23232323------------------|
 -0-------------------------------0-------------------------------|
 -0-000---------------------------0-000---------------------------|

*** ***
3:07
 
 -------------------------------------------------------------|
 -------------------------------------------------------------|
 -------------------------------------------------------------|
 -0--------------0--------------0--------------0--------------|
 -0--------------0--------------0--------------0--------------|
 -0--------------0--------------0--------------0--------------|

3:26
L
 
 ---------------|
 ---------------|
 ---------------|
 -0000-00-------|
 -0000-00-------|
 -0000-00-------|

**** **
R
 
 --------------|
 --------------|
 --------------|
 -0------------|
 -0------------|
 -0------------|

*
3:29
 
 ----------------------------------------------|
 ----------------------------------------------|
 ----------------------------------------------|
 -0000-00--0000-00-----00000--00--00000--00-00-|
 -0000-00--0000-00-----00000--00--00000--00-00-|
 -0000-00--0000-00-----00000--00--00000--00-00-|

**** ** **** ** ***** ** ***** ** **
 
 ------------------------------------------|
 ------------------------------------------|
 ------------------------------------------|
 -0000-00--0000-00-----00000--00--0000-----|
 -0000-00--0000-00-----00000--00--0000-----|
 -0000-00--0000-00-----00000--00--00000V---|

**** ** **** ** ***** ** ****
 
 ----------------------------------------------|
 ----------------------------------------------|
 ----------------------------------------------|
 -0000-00--0000-00-----00000--00--00000--00-00-|
 -0000-00--0000-00-----00000--00--00000--00-00-|
 -0000-00--0000-00-----00000--00--00000--00-00-|

**** ** **** ** ***** ** ***** ** **
 
 ------------------------------------------------|
 ------------------------------------------------|
 ------------------------------------------------|
 -0000-00--0000-00-----00000--00--00000--00-00-00|
 -0000-00--0000-00-----00000--00--00000--00-00-00|
 -0000-00--0000-00-----00000--00--00000--00-00-00|

**** ** **** ** ***** ** ***** ** ** **

Important: The song above is NOT stored on the Chordie server. The original song is hosted at www.guitaretab.com. Chordie works as a search engine and provides on-the-fly formatting. Chordie does not index songs against artists'/composers' will. To remove this song please click here.

Text color:
Chord color:
Chord grids: 
Font size:    
Page size: 

B
Rate #4 of 4 versions

Login - add to songbook

SHARE PAGE  



You need to log in to post comments