Guitar Tabs, Chords and Lyrics
Server problems seems to be fixed. Chordie has been experiencing problems with songs disappearing. These issues now seems to be fixed, but still verifying the fix. If you find anything strange, please email admin@chordie.com.


Anasasis (Xenophontis)  Parkway Drive

ANASASIS (XENOPHONTIS)
[B-F#-B-E-G#-C#]  
TABBED BY andherembrace
INTRO
 
 ------------------------------------------------------|
 ----------10--------------------------------10--------|
 -10----10----10-------------------10-----10----10-----|
 ----14----------14-------------------14-----------14--|
 ------------------------------------------------------|
 ------------------------------------------------------|

0:15
L
 
 ------------------------------------------------------------------------|
 ----------10------------------------------------------------------------|
 -10----10----10---------------------------------------------------------|
 ----14----------14------0-----------------0-----------------0-----------|
 -------------------0-00-0--0-00-0-00-0-00-0--0-00-0-00-0-00-0--0-00-0-0-|
 -------------------0-00-0--0-00-0-00-0-00-0--0-00-0-00-0-00-0--0-00-0-0-|

* ** * ** * ** * ** * ** * ** * ** * ** * *
R
 
 -----------------------------------------------------------------------|
 -----------------------------------------------------------------------|
 10----10---------------------------------------------------------------|
 ---14----14-10-14------0-----------------0-----------------0-----------|
 ------------------0-00-0--0-00-0-00-0-00-0--0-00-0-00-0-00-0--0-00-0-0-|
 ------------------0-00-0--0-00-0-00-0-00-0--0-00-0-00-0-00-0--0-00-0-0-|

* ** * ** * ** * ** * ** * ** * ** * ** * *
[B]  
 
 ----------------------------------------------------------------------|
 ----------10----------------------------------------------------------|
 -10----10----10-------------------------------------------------------|
 ----14----------14------0-----------------0-------0-------0-----------|
 -------------------0-00-0--0-00-0-00-0-00-0--0-00-0--0-00-0--0-00-0-0-|
 -------------------0-00-0--0-00-0-00-0-00-0--0-00-0--0-00-0--0-00-0-0-|

* ** * ** * ** * ** * ** * ** * ** * *
L
 
 ------------------------------------------------------------------------|
 ----------10------------------------------------------------------------|
 -10----10----10---------------------------------------------------------|
 ----14----------14------0-----------------0-----------------0-----------|
 -------------------0-00-0--0-00-0-00-0-00-0--0-00-0-00-0-00-0--0-00-0-0-|
 -------------------0-00-0--0-00-0-00-0-00-0--0-00-0-00-0-00-0--0-00-0-0-|

* ** * ** * ** * ** * ** * ** * ** * ** * *
R
 
 -----------------------------------------------------------------------|
 -----------------------------------------------------------------------|
 10----10---------------------------------------------------------------|
 ---14----14-10-14------0-----------------0-----------------0-----------|
 ------------------0-00-0--0-00-0-00-0-00-0--0-00-0-00-0-00-0--0-00-0-0-|
 ------------------0-00-0--0-00-0-00-0-00-0--0-00-0-00-0-00-0--0-00-0-0-|

* ** * ** * ** * ** * ** * ** * ** * ** * *
[B]  
 
 ----------------------------------------------------------------------|
 ----------10----------------------------------------------------------|
 -10----10----10-------------------------------------------------------|
 ----14----------14------0-----------------0-------0-------0-----------|
 -------------------0-00-0--0-00-0-00-0-00-0--0-00-0--0-00-0--0-00-0-0-|
 -------------------0-00-0--0-00-0-00-0-00-0--0-00-0--0-00-0--0-00-0-0-|

* ** * ** * ** * ** * ** * ** * ** * *
L
 
 -------------------|
 ----------10-------|
 -10----10----10----|
 ----14----------14-|
 -------------------|
 -------------------|

R
 
 -------------------|
 -------------------|
 10----10-----------|
 ---14----14-10-14--|
 -------------------|
 -------------------|

0:43
L
 
 -----------------------------------|
 -----------------------------------|
 -----------------------------------|
 -----------------------------------|
 -0-00000--0-000--0-000-------------|
 -0-00000--0-000--0-000-------------|

* ***** * *** * ***
R
 
 -----------------------------------|
 -----------------------------------|
 ---------------------___-----------|
 --------------------/ \--5-------|
 -0-00000--0-000--0-0-5-7-8---8-7-8-|
 -0-00000--0-000--0-----------------|

* ***** * *** *
L
 
 --------------------------------------|
 --------------------------------------|
 --------------------------------------|
 --------------------------------------|
 -0-00000--0-000--0-000----------------|
 -0-00000--0-000--0-000----------------|

* ***** * *** * ***
R
 
 --------------------------------------|
 --------------------------------------|
 ---------------------___--------------|
 --------------------/ \---7---------|
 -0-00000--0-000--0-0-7-8-10---10-8-10-|
 -0-00000--0-000--0--------------------|

* ***** * *** *
L
 
 -----------------------------------|
 -----------------------------------|
 -----------------------------------|
 -----------------------------------|
 -0-00000--0-000--0-000-------------|
 -0-00000--0-000--0-000-------------|

* ***** * *** * ***
R
 
 -----------------------------------|
 -----------------------------------|
 ---------------------___-----------|
 --------------------/ \--5-------|
 -0-00000--0-000--0-0-5-7-8---8-7-8-|
 -0-00000--0-000--0-----------------|

* ***** * *** *
[B]  
 
 --------------------------------------|
 --------------------------------------|
 ---------------------___--------------|
 --------------------/ \---7---------|
 -0-00000--0-000--0-0-7-8-10---10-8-10-|
 -0-00000--0-000--0--------------------|

* ***** * *** *
0:57
[B]  
 
 -----------------------------------------|
 -----------------------------------------|
 -------------------------___-------------|
 ------------------------/ \--5---------|
 -0000-0-0---00-0-0---0-0-5-7-8---8-7-8---|
 -0000-0-0---00-0-0---0-------------------|

| |
 
 -------------------------------------------|
 -------------------------------------------|
 -------------------------___---------------|
 ------------------------/ \---7----------|
 -0000-0-0---00-0-0---0-0-7-8-10---10-8-10--|
 -0000-0-0---00-0-0---0---------------------|

| |
 
 -----------------------------------------|
 -----------------------------------------|
 -------------------------___-------------|
 ------------------------/ \--5---------|
 -0000-0-0---00-0-0---0-0-5-7-8---8-7-8---|
 -0000-0-0---00-0-0---0-------------------|

| |
 
 -------------------------------------------|
 -------------------------------------------|
 -------------------------___---------------|
 ------------------------/ \---7----------|
 -0000-0-0---00-0-0---0-0-7-8-10---10-8-10--|
 -0000-0-0---00-0-0---0---------------------|

| |
1:10
L
 
 ----------------------------------------------------------|
 ----------------------------------------------------------|
 ---------------------------------7-9-10-12--10-9-10--9-5--|
 ---------------------------------X-X-X---X---X-X--X--X-X--|
 -00000--------00000--------00000-5-7-8--10---8-7--8--7-3--|
 -00000--------00000--------00000--------------------------|

***** ***** *****
R
 
 ----------------------------------------------------------|
 ----------------------------------------------------------|
 -------7-9-10-------7-9-10-------7-9-10-12--10-9-10--9-5--|
 -------X-X-X--------X-X-X--------X-X-X---X---X-X--X--X-X--|
 -00000-5-7-8--00000-5-7-8--00000-5-7-8--10---8-7--8--7-3--|
 -00000--------00000--------00000--------------------------|

***** ***** *****
[B]  
 
 ----------------------------------------------------------|
 ----------------------------------------------------------|
 -------7-9-10-------7-9-10-------7-9-10-12--10-9-10--9-5--|
 -------X-X-X--------X-X-X--------X-X-X---X---X-X--X--X-X--|
 -00000-5-7-8--00000-5-7-8--00000-5-7-8--10---8-7--8--7-3--|
 -00000--------00000--------00000--------------------------|

***** ***** *****
 
 ----------------------------------------------------------|
 ----------------------------------------------------------|
 -------7-9-10-------7-9-10-------7-9-10-12--10-9-10--9-5--|
 -------X-X-X--------X-X-X--------X-X-X---X---X-X--X--X-X--|
 -00000-5-7-8--00000-5-7-8--00000-5-7-8--10---8-7--8--7-3--|
 -00000--------00000--------00000--------------------------|

***** ***** *****
1:25
L
 
 ------------------------------------------------------------|
 ------------------------------------------------------------|
 ------10-12-14------10-12-14------10-12-14-12--10-9-10--9-5-|
 -------X--X--X-------X--X--X-------X--X--X--X---X-X--X--X-X-|
 -0-000-8-10-12-0-000-8-10-12-0-000-8-10-12-10---8-7--8--7-3-|
 -0-000---------0-000---------0-000--------------------------|

* *** * *** * ***
R
 
 ----------------------------------------------------------|
 ----------------------------------------------------------|
 -------7-9-10-------7-9-10-------7-9-10-12--10-9-10--9-5--|
 -------X-X-X--------X-X-X--------X-X-X---X---X-X--X--X-X--|
 -0-000-5-7-8--0-000-5-7-8--0-000-5-7-8--10---8-7--8--7-3--|
 -0-000--------0-000--------0-000--------------------------|

* *** * *** * ***
L
 
 ------------------------------------------------------------|
 ------------------------------------------------------------|
 ------10-12-14------10-12-14------10-12-14-12--10-9-10--9-5-|
 -------X--X--X-------X--X--X-------X--X--X--X---X-X--X--X-X-|
 -0-000-8-10-12-0-000-8-10-12-0-000-8-10-12-10---8-7--8--7-3-|
 -0-000---------0-000---------0-000--------------------------|

* *** * *** * ***
R
 
 ----------------------------------------------------------|
 ----------------------------------------------------------|
 -------7-9-10-------7-9-10-------7-9-10-12--10-9-10--9-5--|
 -------X-X-X--------X-X-X--------X-X-X---X---X-X--X--X-X--|
 -0-000-5-7-8--0-000-5-7-8--0-000-5-7-8--10---8-7--8--7-3--|
 -0-000--------0-000--------0-000--------------------------|

* *** * *** * ***
1:35
[B]  
 
 ------------------------------------------------------------|
 ------------------------------------------------------------|
 ------------------------------------------------------------|
 -0--3-7-2-5-------------------0--3-7-2-5--------------------|
 -0----------3-7-2-5-----2-5---0----------3-7-2-5-----2-5----|
 -0------------------3-7-----3-0------------------3-7-----3--|

* * * * * * * * * * * * * * * * * * * * * * * * * *
 
 ------------------------------------------------------------|
 ------------------------------------------------------------|
 ------------------------------------------------------------|
 -0--3-7-2-5-------------------0--3-7-2-5--------------------|
 -0----------3-7-2-5-----2-5---0----------3-7-2-5-----2-5----|
 -0------------------3-7-----3-0------------------3-7-----3--|

* * * * * * * * |
 
 ------------------------------------------------------------|
 ------------------------------------------------------------|
 ------------------------------------------------------------|
 -0------2-5-3-7-2-5-----2-5---0------2-5-3-7-2-5-----2-5----|
 -0--3-7-2-5-3-7-2-5-3-7-2-5-3-0--3-7-2-5-3-7-2-5-3-7-2-5-3--|
 -0--3-7-------------3-7-----3-0--3-7-------------3-7-----3--|

* * * * * * * * * * * * * * * * * * * * * * * * * *
 
 ------------------------------------------------------------|
 ------------------------------------------------------------|
 ------------------------------------------------------------|
 -0------2-5-3-7-2-5-----2-5---0------2-5-3-7-2-5-----2-5----|
 -0--3-7-2-5-3-7-2-5-3-7-2-5-3-0--3-7-2-5-3-7-2-5-3-7-2-5-3--|
 -0--3-7-------------3-7-----3-0--3-7-------------3-7-----3--|

* * * * * * * * * * * * * * * * * * * * * * * * * *
 
 ----------------|
 ----------------|
 ----------------|
 -0-----0-----0--|
 -0-----0-----0--|
 -0-----0-----0--|

2:00
 
 ------------------------------------------------------------------------|
 ----------10------------------------------------------------------------|
 -10----10----10---------------------------------------------------------|
 ----14----------14------0-----------------0-----------------0-----------|
 -------------------0-00-0--0-00-0-00-0-00-0--0-00-0-00-0-00-0--0-00-0-0-|
 -------------------0-00-0--0-00-0-00-0-00-0--0-00-0-00-0-00-0--0-00-0-0-|

* ** * ** * ** * ** * ** * ** * ** * ** * *
 
 ----------------------------------------------------------------------|
 ----------10----------------------------------------------------------|
 -10----10----10-------------------------------------------------------|
 ----14----------14------0-----------------0-------0-------0-----------|
 -------------------0-00-0--0-00-0-00-0-00-0--0-00-0--0-00-0--0-00-0-0-|
 -------------------0-00-0--0-00-0-00-0-00-0--0-00-0--0-00-0--0-00-0-0-|

* ** * ** * ** * ** * ** * ** * ** * *
L
 
 -------------------|
 ----------10-------|
 -10----10----10----|
 ----14----------14-|
 -------------------|
 -------------------|

R
 
 -------------------|
 -------------------|
 10----10-----------|
 ---14----14-10-14--|
 -------------------|
 -------------------|

2:15
 
 ----------------------------------------------------------|
 ----------------------------------------------------------|
 -------7-9-10-------7-9-10-------7-9-10-12--10-9-10--9-5--|
 -------X-X-X--------X-X-X--------X-X-X---X---X-X--X--X-X--|
 -00000-5-7-8--00000-5-7-8--00000-5-7-8--10---8-7--8--7-3--|
 -00000--------00000--------00000--------------------------|

***** ***** *****
 
 ----------------------------------------------------------|
 ----------------------------------------------------------|
 -------7-9-10-------7-9-10-------7-9-10-12--10-9-10--9-5--|
 -------X-X-X--------X-X-X--------X-X-X---X---X-X--X--X-X--|
 -00000-5-7-8--00000-5-7-8--00000-5-7-8--10---8-7--8--7-3--|
 -00000--------00000--------00000--------------------------|

***** ***** *****
2:25
L
 
 ------------------------------------------------------------|
 ------------------------------------------------------------|
 ------10-12-14------10-12-14------10-12-14-12--10-9-10--9-5-|
 -------X--X--X-------X--X--X-------X--X--X--X---X-X--X--X-X-|
 -0-000-8-10-12-0-000-8-10-12-0-000-8-10-12-10---8-7--8--7-3-|
 -0-000---------0-000---------0-000--------------------------|

* *** * *** * ***
R
 
 ----------------------------------------------------------|
 ----------------------------------------------------------|
 -------7-9-10-------7-9-10-------7-9-10-12--10-9-10--9-5--|
 -------X-X-X--------X-X-X--------X-X-X---X---X-X--X--X-X--|
 -0-000-5-7-8--0-000-5-7-8--0-000-5-7-8--10---8-7--8--7-3--|
 -0-000--------0-000--------0-000--------------------------|

* *** * *** * ***
L
 
 ------------------------------------------------------------|
 ------------------------------------------------------------|
 ------10-12-14------10-12-14------10-12-14-12--10-9-10--9-5-|
 -------X--X--X-------X--X--X-------X--X--X--X---X-X--X--X-X-|
 -0-000-8-10-12-0-000-8-10-12-0-000-8-10-12-10---8-7--8--7-3-|
 -0-000---------0-000---------0-000--------------------------|

* *** * *** * ***
R
 
 ----------------------------------------------------------|
 ----------------------------------------------------------|
 -------7-9-10-------7-9-10-------7-9-10-12--10-9-10--9-5--|
 -------X-X-X--------X-X-X--------X-X-X---X---X-X--X--X-X--|
 -0-000-5-7-8--0-000-5-7-8--0-000-5-7-8--10---8-7--8--7-3--|
 -0-000--------0-000--------0-000--------------------------|

* *** * *** * ***
2:37
 
 -----------------------------------------|
 -----------------------------------------|
 -------------------------___-------------|
 ------------------------/ \--5---------|
 -0000-0-0---00-0-0---0-0-5-7-8---8-7-8---|
 -0000-0-0---00-0-0---0-------------------|

| |
 
 -------------------------------------------|
 -------------------------------------------|
 -------------------------___---------------|
 ------------------------/ \---7----------|
 -0000-0-0---00-0-0---0-0-7-8-10---10-8-10--|
 -0000-0-0---00-0-0---0---------------------|

| |
 
 -----------------------------------------|
 -----------------------------------------|
 -------------------------___-------------|
 ------------------------/ \--5---------|
 -0000-0-0---00-0-0---0-0-5-7-8---8-7-8---|
 -0000-0-0---00-0-0---0-------------------|

| |
 
 -------------------------------------------|
 -------------------------------------------|
 -------------------------___---------------|
 ------------------------/ \---7----------|
 -0000-0-0---00-0-0---0-0-7-8-10---10-8-10--|
 -0000-0-0---00-0-0---0---------------------|

| |
2:48
L
 
 ------------------------------------------------------|
 ------------------------------------------------------|
 ------------------------------------------------------|
 ------------------------------------------------------|
 -0-00000---0-000---0-000------0-00000---0-000---0-000-|
 -0-00000---0-000---0-000------0-00000---0-000---0-000-|

* ***** * *** * *** * ***** * *** * ***
R
 
 ---------------------------------------------------------------------|
 ---------------------------------------------------------------------|
 ----------------------------------------------------___--------------|
 ---------------------------------------------------/ \---7---------|
 -0-00000---0-000---0-000------0-00000---0-000---0-0-7-8-10---10-8-10-|
 -0-00000---0-000---0-000------0-00000---0-000---0--------------------|

* ***** * *** * *** * ***** * *** *
[B]  
 
 -------------------------------------------------|
 -------------------------------------------------|
 -------------------------------------------------|
 -------------------------------------------------|
 -0-00000---0-000---0-000------0-00000---0-000----|
 -0-00000---0-000---0-000------0-00000---0-000----|

* ***** * *** * *** * ***** * ***
-TAP 17,PULL OFF TO 10,HAMMER ON 13,PULL OFF TO 12
THEN HAMMER ON 13 OF 2ND STRING
INDEX FINGER ON 10,MIDDLE ON 12,RING ON 13 ALSO USED TO HAMMER ON
[1]  
T __ T __ T __ T __ T __ T __ T __ T __
/ \ / \ / \ / \ / \ / \ / \ / \
 
 17101312-17101312-17101312-17101312-17101312-17101312-17101312-17101312--|
 -------13-------13-------13-------13-------13-------13-------13--------13|
 -------------------------------------------------------------------------|
 -------------------------------------------------------------------------|
 -------------------------------------------------------------------------|
 -------------------------------------------------------------------------|

CONT.
T __ T __ T __ T __ T __ T __ T __ T __
/ \ / \ / \ / \ / \ / \ / \ / \
 
 17101312-17101312-17101312-17101312-17101312-17101312-17101312-17101312--|
 -------13-------13-------13-------13-------13-------13-------13--------13|
 -------------------------------------------------------------------------|
 -------------------------------------------------------------------------|
 -------------------------------------------------------------------------|
 -------------------------------------------------------------------------|

[2]  
 
 ------------------------------------------------------------------------|
 ---------------------------------------------------------------10-------|
 ------------------------------------------------------10----10----10----|
 ------0-----------------0-----------------0--------------14----------14-|
 -0-00-0--0-00-0-00-0-00-0--0-00-0-00-0-00-0--0-00-0-0-------------------|
 -0-00-0--0-00-0-00-0-00-0--0-00-0-00-0-00-0--0-00-0-0-------------------|

* ** * ** * ** * ** * ** * ** * ** * ** * *
3:08
[1]  
T __ T __ T __ T __ T __ T __ T __ T __
/ \ / \ / \ / \ / \ / \ / \ / \
 
 17101312-17101312-17101312-17101312-17101312-17101312-17101312-17101312--|
 -------13-------13-------13-------13-------13-------13-------13--------13|
 -------------------------------------------------------------------------|
 -------------------------------------------------------------------------|
 -------------------------------------------------------------------------|
 -------------------------------------------------------------------------|

CONT.
T __ T __ T __ T __
/ \ / \ / \ / \
 
 17101312-17101312-17101312-17101312---|
 -------13-------13-------13-------13--|
 --------------------------------------|
 --------------------------------------|
 --------------------------------------|
 --------------------------------------|

CONT.
_____
T ^ T / \ __
 
 -18-17-18-17-15-13-T-^---T-/ \------------_____----------------------|
 -------------------18-17-18-17-15-T-^---T-/ \------------_____----|
 ----------------------------------19-17-19-17-15-14-T-^---T-/ \---|
 ----------------------------------------------------19-17-19-17-15-14-|
 ----------------------------------------------------------------------|
 ----------------------------------------------------------------------|

[2]  
 
 --------------------------------------------------------|
 --------------------------------------------------------|
 --------------------------------------------------------|
 ------0-----------------0-----------------0-------------|
 -0-00-0--0-00-0-00-0-00-0--0-00-0-00-0-00-0--0-00-0-0---|
 -0-00-0--0-00-0-00-0-00-0--0-00-0-00-0-00-0--0-00-0-0---|

* ** * ** * ** * ** * ** * ** * ** * ** * *
3:15
[1]  
T __ T __ T __ T __ T __ T __ T __ T __
/ \ / \ / \ / \ / \ / \ / \ / \
 
 17101312-17101312-17101312-17101312-17101312-17101312-17101312-17101312--|
 -------13-------13-------13-------13-------13-------13-------13--------13|
 -------------------------------------------------------------------------|
 -------------------------------------------------------------------------|
 -------------------------------------------------------------------------|
 -------------------------------------------------------------------------|

[2]  
 
 ---------------------------------|
 ---------------------------------|
 -------------------10-9-10-9-5-9-|
 ------0-------------X-X--X-X-X-X-|
 -0-00-0---0-00-0-0--8-7--8-7-3-7-|
 -0-00-0---0-00-0-0---------------|

* ** * ** * *
[1]T __ T __ T __ T __
/ \ / \ / \ / \
 
 17101312-17101312-17101312-17101312---|
 -------13-------13-------13-------13--|
 --------------------------------------|
 --------------------------------------|
 --------------------------------------|
 --------------------------------------|

CONT.
T ^ T T T ^ T ^
 
 --T---^----T---^----T---^----T---^---15-10-12-15-10-12-15-10-12-15-10-12|
 -18-10-13-18-10-13-18-10-13-18-10-13------------------------------------|
 ------------------------------------------------------------------------|
 ------------------------------------------------------------------------|
 ------------------------------------------------------------------------|
 ------------------------------------------------------------------------|

[2]  
 
 ----------------------------------|
 ----------------------------------|
 -------------------10-9-10-1210-9-|
 ------0-------------X-X--X--X-X-X-|
 -0-00-0---0-00-0-0--8-7--8-10-8-7-|
 -0-00-0---0-00-0-0----------------|

* ** * ** * *
[1]  
T __ T __ T __ T __ T __ T __ T __ T __
/ \ / \ / \ / \ / \ / \ / \ / \
 
 17101312-17101312-17101312-17101312-17101312-17101312-17101312-17101312--|
 -------13-------13-------13-------13-------13-------13-------13--------13|
 -------------------------------------------------------------------------|
 -------------------------------------------------------------------------|
 -------------------------------------------------------------------------|
 -------------------------------------------------------------------------|

[2]  
 
 ---------------------------------|
 ---------------------------------|
 -------------------10-9-10-9-5-9-|
 ------0-------------X-X--X-X-X-X-|
 -0-00-0---0-00-0-0--8-7--8-7-3-7-|
 -0-00-0---0-00-0-0---------------|

* ** * ** * *
[1]T __ T __ T __ T __
/ \ / \ / \ / \
 
 17101312-17101312-17101312-17101312---|
 -------13-------13-------13-------13--|
 --------------------------------------|
 --------------------------------------|
 --------------------------------------|
 --------------------------------------|

CONT.
_____
T ^ T / \ __
 
 -18-17-18-17-15-13-T-^---T-/ \------------_____----------------------|
 -------------------18-17-18-17-15-T-^---T-/ \------------_____----|
 ----------------------------------19-17-19-17-15-14-T-^----T/ \---|
 ----------------------------------------------------19-17-19-17-15-14-|
 ----------------------------------------------------------------------|
 ----------------------------------------------------------------------|

[2]  
 
 ---------------------------------------|
 ---------------------------------------|
 -------------------10-9-10-1210-9------|
 ------0-------------X-X--X--X-X-X------|
 -0-00-0---0-00-0-0--8-7--8-10-8-7-0----|
 -0-00-0---0-00-0-0----------------0-|--|

* ** * ** * *

Important: The song above is NOT stored on the Chordie server. The original song is hosted at www.guitaretab.com. Chordie works as a search engine and provides on-the-fly formatting. Chordie does not index songs against artists'/composers' will. To remove this song please click here.

Text color:
Chord color:
Chord grids: 
Font size:    
Page size: 

B
Rate #1 of 2 versions

Login - add to songbook

SHARE PAGE  




You need to log in to post comments