Guitar Tabs, Chords and Lyrics
Server problems seems to be fixed. Chordie has been experiencing problems with songs disappearing. These issues now seems to be fixed, but still verifying the fix. If you find anything strange, please email admin@chordie.com.


Unrest  Parkway Drive

[A-E-A-D-F#-B]  
TABBED BY andherembrace
 
 --------------------------------------|
 --------------------------------------|
 -------------------R-------L----------|
 -0------------------P-------P---------|
 -0-------------------S-------S--------|
 -0--------------------\-------\-------|

L
 
 ------------------------------------------------------------------|
 ------------------------------------------------------------------|
 ------------------------------------------------------------------|
 --------------------------------^-----/\-----/\-----/\-----^---^--|
 -------------------------------585---7107---8128---7107---585-373-|
 -----------------------------------0------0------0------0---------|

* * * *
R
 
 ------------------------------------------------------------------|
 ------------------------------------------------------------------|
 ------------------------------------------------------------------|
 --^-----------------------------^-----/\-----/\-----/\-----^---^--|
 -585---------------------------585---7107---8128---7107---585-373-|
 -----00000--00000--00000--0000-----0------0------0------0---------|

***** ***** ***** **** * * * *
[B]  
 
 -----------------------------------------------------------------|
 -----------------------------------------------------------------|
 -----------------------------------------------------------------|
 --^-----------------------------^-----^-----^-----^-----^---^----|
 -585---------------------------585---585---585---585---373-373---|
 -----00000--00000--00000--0000-----0-----0-----0-----0-----------|

***** ***** ***** **** * * * *
 
 ------------------------------------------------------------------|
 ------------------------------------------------------------------|
 ------------------------------------------------------------------|
 --^-----------------------------^-----/\-----/\-----/\-----^---^--|
 -585---------------------------585---7107---8128---7107---585-373-|
 -----00000--00000--00000--0000-----0------0------0------0---------|

***** ***** ***** **** * * * *
 
 -----------------------------------------------------------|
 -----------------------------------------------------------|
 -----------------------------------------------------------|
 --^--------------------------------------------------------|
 -585-------------------------------------------------------|
 -----00000--00000--00000--00000--00000--00000--00000--0000-|

***** ***** ***** ***** ***** ***** ***** ****
0:21
L
 
 --------------------------------------------------------|
 --------------------------------------------------------|
 --------------------------------------------------------|
 --^-----------------------------^--------^--------^-----|
 -585---------------------------585---8--585---7--585-3--|
 -----00000--00000--00000--0000-----0-7------0-5---------|

***** ***** ***** **** * *
R
 
 --------------------------------------------------------|
 --------------------------------------------------------|
 --------------------------------------------------------|
 --^-----------------------------^--------^--------^-----|
 -585---------------------------585---12-585---7--585-3--|
 -----00000--00000--00000--0000-----0-8------0-5---------|

***** ***** ***** **** * *
[B]  
 
 ------------------------------------------------------------|
 ------------------------------------------------------------|
 ------------------------------------------------------------|
 --^---------------------------------------------------------|
 -585-0-0-0-0-0-0---0-0-0-0-0-0---0-0-0-0-0-0---0-0-0-0-0-0--|
 -----0-0-0-0-0-0---0-0-0-0-0-0---0-0-0-0-0-0---0-0-0-0-0-0--|

* * * * * * * * * * * * * * * * * * * * * * * *
L
 
 ------------------------------------------------------------------|
 ------------------------------------------------------------------|
 ------------------------------------------------------------------|
 --^-----------------------------^-----/\-----/\-----/\-----^---^--|
 -585---------------------------585---7107---8128---7107---585-373-|
 -----00000--00000--00000--0000-----0------0------0------0---------|

***** ***** ***** **** * * * *
R
 
 -------------------------------------------------------------------|
 -------------------------------------------------------------------|
 -------------------------------------------------------------------|
 --^-----------------------------^-----/\-----/\-----/\-----/\---/\-|
 -585---------------------------585---7107---8128---7107---8128-7107|
 -----00000--00000--00000--0000-----0------0------0------0----------|

***** ***** ***** **** * * * *
[B]  
 
 ------------------------------------------------------------|
 ------------------------------------------------------------|
 ------------------------------------------------------------|
 --^---------------------------------------------------------|
 -585-0-0-0-0-0-0---0-0-0-0-0-0---0-0-0-0-0-0---0-0-0-0-0-0--|
 -----0-0-0-0-0-0---0-0-0-0-0-0---0-0-0-0-0-0---0-0-0-0-0-0--|

* * * * * * * * * * * * * * * * * * * * * * * *
0:40
L
 
 -----------------------------------------------------------------|
 -----------------------------------------------------------------|
 -----------------------------------------------------------------|
 -----------------------------------------------------------------|
 -0------------8-10-------5---00-00---00-00-00--00-00---00-00-00--|
 -0------------8-10-------5---00-00---00-00-00--00-00---00-00-00--|

| | | ** ** ** ** ** ** ** ** ** **
R
 
 -----------------------------------------------------------------|
 -----------------------------------------------------------------|
 ---________-------____-------------------------------------------|
 --/ \-----/ \------------------------------------------|
 -585858585858---37373737-5---00-00---00-00-00--00-00---00-00-00--|
 --------------8----------5---00-00---00-00-00--00-00---00-00-00--|

| ** ** ** ** ** ** ** ** ** **
L
 
 -----------------------------------------------|
 -----------------------------------------------|
 ---_______________--------_____________--------|
 --/ \------/ \-------|
 -812812812812812812-----710710710710710710-----|
 ---------------------8---------------------5---|

R
 
 -----------------------------------|
 -----------------------------------|
 ---________--------________--------|
 --/ \------/ \-------|
 -585858585858----373737373737------|
 --------------8---------------5----|

L
 
 -------------------------------------------|
 -------------------------------------------|
 -------------------------------------------|
 -------------------------------------------|
 -------------------------------------------|
 -12-10-0-0-0-0-0-0-10-12-10-0-0-0-0-0-0-10-|

* * * * * *
R
 
 ----------------------------------------|
 ----------------------------------------|
 ----------------------------------------|
 ----------------------------------------|
 ----------------------------------------|
 -7-5-0-0-0-0-0-0-5-7-5-0-0-0-0-0-0-5----|

* * * * * *
L
 
 -----------------------------------------------|
 -----------------------------------------------|
 ---_______________--------_____________--------|
 --/ \------/ \-------|
 -812812812812812812-----710710710710710710-----|
 ---------------------8---------------------5---|

R
 
 -----------------------------------|
 -----------------------------------|
 ---________--------________--------|
 --/ \------/ \-------|
 -585858585858----373737373737------|
 --------------8---------------5----|

[B]  
 
 -------------------------------------|
 -------------------------------------|
 -------------------------------------|
 -------------------------------------|
 -00-00---00-00-00--00-00---00-00-00--|
 -00-00---00-00-00--00-00---00-00-00--|

** ** ** ** ** ** ** ** ** **
L
 
 -----------------------------------------------|
 -----------------------------------------------|
 ---_______________--------_____________--------|
 --/ \------/ \-------|
 -812812812812812812-----710710710710710710-----|
 ---------------------8---------------------5---|

R
 
 -----------------------------------|
 -----------------------------------|
 ---________--------________--------|
 --/ \------/ \-------|
 -585858585858----373737373737------|
 --------------8---------------5----|

1:04
L
 
 ---------------------------------------------------------------------------|
 ---------------------------------------------------------------------------|
 ---------------------------------------------------------------------------|
 ---------------------------------------------------------------------------|
 ------------------------------------------------------------------------7-7|
 12-10-0-0-0-0-0-0-10-12-10-0-0-0-0-0-0-12-10-0-0-0-0-0-0-10-12-10-0-0-0----|

* * * * * * * * * * *
R
 
 ------------------------------------------------------------------|
 ------------------------------------------------------------------|
 ------------------------------------------------------------------|
 ------------------------------------------------------------------|
 --------------------------------------------------------------3-3-|
 7-5-0-0-0-0-0-0-5-7-5-0-0-0-0-0-0-7-5-0-0-0-0-0-0-5-7-5-0-0-0-----|

* * * * * * * * * * *
L
 
 ----------------------------------------------------------------------------|
 ----------------------------------------------------------------------------|
 ----------------------------------------------------------------------------|
 ----------------------------------------------------------------------------|
 -------------------------------------------------------------------------7-7|
 0101210-0-0-0-0-0-0-10-12-10-0-0-0-0-0-0-12-10-0-0-0-0-0-0-10-12-10-0-0-0---|

* * * * * * * * * * *
R
 
 ---------------------------------------------------------------------|
 ---------------------------------------------------------------------|
 ---------------------------------------------------------------------|
 ---------------------------------------------------------------------|
 ------------------------------------------------------------------3-3|
 0-5-7-5-0-0-0-0-0-0-5-7-5-0-0-0-0-0-0-7-5-0-0-0-0-0-0-5-7-5-0-0-0----|

* * * * * * * * * * *
[B]  
 
 ---------------------------|
 ---------------------------|
 ---------------------------|
 -0-----------------P-------|
 -0-----------------S-------|
 -0-----------------\-------|

1:22
 
 ------------------------------------------------------------------|
 ------------------------------------------------------------------|
 ------------------------------------------------------------------|
 --^-----------------------------^-----/\-----/\-----/\-----^---^--|
 -585---------------------------585---7107---8128---7107---585-373-|
 -----00000--00000--00000--0000-----0------0------0------0---------|

***** ***** ***** **** * * * *
 
 ------------------------------------------------------------|
 ------------------------------------------------------------|
 ------------------------------------------------------------|
 --^---------------------------------------------------------|
 -585-0-0-0-0-0-0---0-0-0-0-0-0---0-0-0-0-0-0---0-0-0-0-0-0--|
 -----0-0-0-0-0-0---0-0-0-0-0-0---0-0-0-0-0-0---0-0-0-0-0-0--|

* * * * * * * * * * * * * * * * * * * * * * * *
 
 --------------------------------------------------------|
 --------------------------------------------------------|
 --------------------------------------------------------|
 --^-----------------------------^--------^--------^-----|
 -585---------------------------585---8--585---7--585-3--|
 -----00000--00000--00000--0000-----0-7------0-5---------|

***** ***** ***** **** * *
 
 -----------------------------------------------------------|
 -----------------------------------------------------------|
 -----------------------------------------------------------|
 --^--------------------------------------------------------|
 -585-0-0-0-0-0-0---0-0-0-0-0-0---0-0-0-0-0-0---0-0-000-0-0-|
 -----0-0-0-0-0-0---0-0-0-0-0-0---0-0-0-0-0-0---0-0-000-0-0-|

* * * * * * * * * * * * * * * * * * * * *** * *
 
 -------------------------------------------------|
 -------------------------------------------------|
 -------------------------------------------------|
 -0------------------0----------------------------|
 -0------------------0-----------------0----------|
 -0------------------0-----------------0----------|

*
L
 
 ---------------------------------------------------------------|
 ---------------------------------------------------------------|
 ---------------------------------------------------------------|
 ---------------------------------------------------------------|
 -0--0--0---0---0-----0----0----0--0--0---0---0-----------------|
 -0--0--0---0---0-----0----0----0--0--0---0---0--5-8~--7-10~----|

* * * * * * * * * * * *
R
 
 ---------------------------------------------------------------|
 ---------------------------------------------------------------|
 ---------------------------------------------------------------|
 ---------------------------------------------------------------|
 -0--0--0---0---0-----0----0----0--0--0---0---0----5~------7~---|
 -0--0--0---0---0-----0----0----0--0--0---0---0--8------10------|

* * * * * * * * * * * *
L
 
 ---------------------------------------------------------------|
 ---------------------------------------------------------------|
 ---------------------------------------------------------------|
 ---------------------------------------------------------------|
 -0--0--0---0---0-----0----0----0--0--0---0---0-----------------|
 -0--0--0---0---0-----0----0----0--0--0---0---0--5-8~--7-10~----|

* * * * * * * * * * * *
R
 
 ---------------------------------------------------------------|
 ---------------------------------------------------------------|
 ---------------------------------------------------------------|
 ---------------------------------------------------------------|
 -0--0--0---0---0-----0----0----0--0--0---0---0----5~------7~---|
 -0--0--0---0---0-----0----0----0--0--0---0---0--8------10------|

* * * * * * * * * * * *
L
 
 ---------------------------------------------------------------|
 ---------------------------------------------------------------|
 ---------------------------------------------------------------|
 ---------------------------------------------------------------|
 -0--0--0---0---0-----0----0----0--0--0---0---0-----------------|
 -0--0--0---0---0-----0----0----0--0--0---0---0--5-8~--7-10~----|

* * * * * * * * * * * *
R
 
 ---------------------------------------------------------------|
 ---------------------------------------------------------------|
 ---------------------------------------------------------------|
 ---------------------------------------------------------------|
 -0--0--0---0---0-----0----0----0--0--0---0---0----5~------7~---|
 -0--0--0---0---0-----0----0----0--0--0---0---0--8------10------|

* * * * * * * * * * * *
 
 -------------------|
 -------------------|
 -------------------|
 -------------------|
 -0--0--0---0-------|
 -0--0--0---0-------|

* * * *

Important: The song above is NOT stored on the Chordie server. The original song is hosted at www.guitaretab.com. Chordie works as a search engine and provides on-the-fly formatting. Chordie does not index songs against artists'/composers' will. To remove this song please click here.

Text color:
Chord color:
Chord grids: 
Font size:    
Page size: 

B
Rate #1 of 2 versions

Jango Player

Login - add to songbook

SHARE PAGE  



You need to log in to post comments