Guitar Tabs, Chords and Lyrics
Server problems seems to be fixed. Chordie has been experiencing problems with songs disappearing. These issues now seems to be fixed, but still verifying the fix. If you find anything strange, please email admin@chordie.com.


Wreckage   Parkway Drive

 
 ------------------------------------------------|
 ------------------------------------------------|
 ------------------------------------------------|
 ---------8-----------------------8--------------|
 ------12---12-----------------12---12-----------|
 -0------------8----10----0------------8----10---|

 


 R


 

 
 ------------------------------------------------|
 ------------------------------------------------|
 ---------10----------------------10-------------|
 -------8----8------------------8----8-----------|
 ------------------------------------------------|
 -0------------8----10----0------------8----10---|

 


 


 L


 

 
 ------------------------------------------------|
 ------------------------------------------------|
 ------------------------------------------------|
 ---------8-----------------------8--------------|
 ------12---12-----------------12---12-----------|
 -0------------8----10----0------------8----10---|

 


 R


 

 
 ------------------------------------------------|
 ------------------------------------------------|
 ---------10----------------------10-------------|
 -------8----8------------------8----8-----------|
 ------------------------------------------------|
 -0------------8----10----0------------8----10---|

 


 


 0:13


 


 L


 

 
 -----------------------------------------------------------------------|
 -----------------------------------------------------------------------|
 -----------------------------------------------------------------------|
 ---------8-----------8---------8------------8-----------8---------8----|
 ------12---12-----12---12--------12------12---12-----12---12--------12-|
 -0------------8-----------10--------0------------8-----------10--------|

 


 


 R


 

 
 -----------------------------------------------------------------------|
 -----------------------------------------------------------------------|
 ---------10----------10-------10-10---------10----------10-------10-10-|
 -------8----8------8----8-----------------8----8------8----8-----------|
 -----------------------------------------------------------------------|
 -0-------------0-----------10-------0------------8-----------10--------|

 


 


 L


 

 
 -----------------------------------------------------------------------|
 -----------------------------------------------------------------------|
 -----------------------------------------------------------------------|
 ---------8-----------8---------8------------8-----------8---------8----|
 ------12---12-----12---12--------12------12---12-----12---12--------12-|
 -0------------8-----------10--------0------------8-----------10--------|

 


 


 R


 

 
 -----------------------------------------------------------------------|
 -----------------------------------------------------------------------|
 ---------10----------10-------10-10---------10----------10-------10-10-|
 -------8----8------8----8-----------------8----8------8----8-----------|
 -----------------------------------------------------------------------|
 -0-------------0-----------10-------0------------8-----------10--------|

 


 


 


 0:28


 


 

 
 ----------------------------------------------------------------------|
 ----------------------------------------------------------------------|
 ----------------------------------------------------------------------|
 ---------3------------3--------3------------3------------3--------3---|
 -0-----7---7--3-----7---7--5-----7--0-----7---7--3-----7---7--5-----7-|
 -0------------3------------5--------0------------3------------5-------|
 ---------------------------------------------------------------|
 ---------------------------------------------------------------|
 ---------------------------------------------------------------|
 ---------3------------3--------3------------3------------3-----|
 -0-----7---7--3-----7---7--5-----7--0-----7---7--3-----7---7---|
 -0------------3------------5--------0------------3-------------|

 


 


 


 0:41


 


 

 
 --------------------------------------------------------------|
 --------------------------------------------------------------|
 --------------------------------------------------------------|
 --------------------------------------------------------------|
 ---------5---------3---5-----------------5---------5---3------|
 -0-5-8-7-7-0-0-0-0-5-0-7-0-0-0-0-0-5-8-7-7-0-0-0-0-7-0-5------|

 


 * * * * * * * * * * * * * *


 


 

 
 ----------------------------------------------------------------|
 ----------------------------------------------------------------|
 ----------------------------------------------------------------|
 ----------------------------------------------------------------|
 ---------5---------3---3---5-5-----------5---------5---3---3-7--|
 -0-5-8-7-7-0-0-0-0-5-0-5-0-7-7-0-0-5-8-7-7-0-0-0-0-7-0-5---5-9--|

 


 * * * * * * * * * * * *


 


 

 
 -----------------------------------------------------|
 -----------------------------------------------------|
 -----------------------------------------------------|
 -----------------------------------------------------|
 --5---------3---5-----------------5---------5---3----|
 --7-0-0-0-0-5-0-7-0-0-0-0-0-5-8-7-7-0-0-0-0-7-0-5----|

 


 * * * * * * * * * * * * * *


 


 

 
 ----------------------------------------------------------------|
 ----------------------------------------------------------------|
 ----------------------------------------------------------------|
 ----------------------------------------------------------------|
 ---------5---------3---3---5-5-----------5---------5---3--------|
 -0-5-8-7-7-0-0-0-0-5-0-5-0-7-7-0-0-5-8-7-7-0-0-0-0-7-0-5---15\--|

 


 * * * * * * * * * * * *


 


 1:09


 


 

 
 ----------------------------------------------------------------------|
 ----------------------------------------------------------------------|
 ----------------------------------------------------------------------|
 ---------3------------3--------3------------3------------3--------3---|
 -0-----7---7--3-----7---7--5-----7--0-----7---7--3-----7---7--5-----7-|
 -0------------3------------5--------0------------3------------5-------|
 ----------------------------------------------------------------------|
 ----------------------------------------------------------------------|
 ----------------------------------------------------------------------|
 ---------3------------3--------3------------3------------3--------3---|
 -0-----7---7--3-----7---7--5-----7--0-----7---7--3-----7---7--5-----7-|
 -0------------3------------5--------0------------3------------5-------|

 


 


 


 1:23


 L


 

 
 ------------------------------------------------------------|
 ------------------------------------------------------------|
 ------------------------------------------------------------|
 ---------8------------------------------8-------------------|
 ------12---12------------------------12---12----------------|
 0-0-0----------8---0-0-0-10~---0-0-0----------8---0-0-0-10~-|

 


 * * * * * * * * * * * *


 R


 

 
 ------------------------------------------------------------|
 ------------------------------------------------------------|
 ---------10-----------------------------10------------------|
 -------8----8-------------------------8----8----------------|
 ------------------------------------------------------------|
 0-0-0----------8---0-0-0-10~---0-0-0----------8---0-0-0-10~-|

 


 * * * * * * * * * * * *


 


 L


 

 
 ------------------------------------------------------------|
 ------------------------------------------------------------|
 ------------------------------------------------------------|
 ---------8------------------------------8-------------------|
 ------12---12------------------------12---12----------------|
 0-0-0----------8---0-0-0-10~---0-0-0----------8---0-0-0-10~\|

 


 * * * * * * * * * * * *


 R


 

 
 ------------------------------------------------------------|
 ------------------------------------------------------------|
 ---------10-----------------------------10------------------|
 -------8----8-------------------------8----8----------------|
 ------------------------------------------------------------|
 0-0-0----------8---0-0-0-10~---0-0-0----------8---0-0-0-10~\|

 


 * * * * * * * * * * * *


 


 1;36


 


 

 
 ----------------------------------------------------------------|
 ----------------------------------------------------------------|
 ----------------------------------------------------------------|
 ----------------------------------------------------------------|
 ----------------------------------------------------------------|
 2-2-2-2-2-2-2-2-2-2-2-2-2-2-2-2-2-2-2-2-2-2-2-2-2-2-2-2-2-2-2-2-|
 ----------------------------------------------------------------|
 ----------------------------------------------------------------|
 ----------------------------------------------------------------|
 ----------------------------------------------------------------|
 3-3-3-3-3-3-3-3-3-3-3-3-3-3-3-3-5-5-5-5-5-5-5-5-5-5-5-5-5-5-5-5-|
 ----------------------------------------------------------------|
 ----------------------------------------------------------------|
 ----------------------------------------------------------------|
 ----------------------------------------------------------------|
 ----------------------------------------------------------------|
 ----------------------------------------------------------------|
 2-2-2-2-2-2-2-2-2-2-2-2-2-2-2-2-2-2-2-2-2-2-2-2-2-2-2-2-2-2-2-2-|
 -------------------------------------------------------------|
 -------------------------------------------------------------|
 -------------------------------------------------------------|
 -------------------------------------------------------------|
 3-3-3-3-3-3-3-3-3-3-3-3-3-3-3-3-5-5-5-5---5-5-5-5---5\-------|
 -------------------------------------------------------0-----|

 


 * * * * * * * * *


 


 1:50


 


 MELODY


 ___________________________________________________________


 -/ \--|


 

 
 7-0-5-0-5-0-7-0-5-0-5-0-7-0-5-0-8-0-5-0-5-0-8-0-5-0-5-0-8-0-5-0-|
 ----------------------------------------------------------------|
 ----------------------------------------------------------------|
 ----------------------------------------------------------------|
 ----------------------------------------------------------------|

 


 CONT


 __________________________________


 --/ \--|


 

 
 12-8-12-8-12-8-12-8-12-8-12-8-12-8-12-8-|
 -T----T----T----T----T----T----T----T---|
 ----------------------------------------|
 ----------------------------------------|
 ----------------------------------------|

 


 CONT


 __________________________________


 --/ \--|


 

 
 10-8-10-8-10-8-10-8-10-8-10-8-10-8-10-8-|
 -T----T----T----T----T----T----T----T---|
 ----------------------------------------|
 ----------------------------------------|
 ----------------------------------------|

 


 


 RYTHM


 

 
 -------------------------------------------|
 -------------------------------------------|
 -------------------------------------------|
 -------------5-5-5------------------7-7-7--|
 -3-3-3-3-3-3-3-3-3------5-5-5-5-5-5-5-5-5--|
 -------------------------------------------|

 


 * * * * * * * * * * * *


 


 1:56


 


 +PREVIOUS MELODY 7\5


 MELODY


 _________________________________________________________________


 -/ \--|


 

 
 10-0-8-0-8-0-10-0-8-0-8-0-10-0-8-0-12-0-8-0-8-0-12-0-8-0-8-0-12-0-8-0-|
 ----------------------------------------------------------------------|
 ----------------------------------------------------------------------|
 ----------------------------------------------------------------------|
 ----------------------------------------------------------------------|

 


 CONT


 __________________________________


 --/ \--|


 

 
 12-8-12-8-12-8-12-8-12-8-12-8-12-8-12-8-|
 -T----T----T----T----T----T----T----T---|
 ----------------------------------------|
 ----------------------------------------|
 ----------------------------------------|

 


 CONT


 __________________________________


 --/ \--|


 

 
 10-8-10-8-10-8-10-8-10-8-10-8-10-8-10-8-|
 -T----T----T----T----T----T----T----T---|
 ----------------------------------------|
 ----------------------------------------|
 ----------------------------------------|

 


 RYTHM


 

 
 R--------------------------L--------------------|
 ------------------------------------------------|
 ------------------------------------------------|
 ------------------------------------------------|
 ------------------------------------------------|
 -2-2-2-2---2-2-2-2---------2-2-2-2---2-2-2-2----|

 


 * * * * * * * * * * * * * * * *


 CONT.


 

 
 -------------------------------------------|
 -------------------------------------------|
 -------------------------------------------|
 -------------5-5-5------------------7-7-7--|
 -3-3-3-3-3-3-3-3-3------5-5-5-5-5-5-5-5-5--|
 -------------------------------------------|

 


 * * * * * * * * * * * *


 


 +PREVIOUS MELODY 7\5


 MELODY


 _________________________________________________________________


 -/ \--|


 

 
 10-0-8-0-8-0-10-0-8-0-8-0-10-0-8-0-12-0-8-0-8-0-12-0-8-0-8-0-12-0-8-0-|
 ----------------------------------------------------------------------|
 ----------------------------------------------------------------------|
 ----------------------------------------------------------------------|
 ----------------------------------------------------------------------|

 


 CONT


 __________________________________


 --/ \--|


 

 
 12-8-12-8-12-8-12-8-12-8-12-8-12-8-12-8-|
 -T----T----T----T----T----T----T----T---|
 ----------------------------------------|
 ----------------------------------------|
 ----------------------------------------|

 


 CONT


 __________________________________


 --/ \--|


 

 
 10-8-10-8-10-8-10-8-10-8-10-8-10-8-10-8-|
 -T----T----T----T----T----T----T----T---|
 ----------------------------------------|
 ----------------------------------------|
 ----------------------------------------|

 


 RYTHM


 

 
 -----------------------------------------------------------|
 -----------------------------------------------------------|
 -----------------------------------------------------------|
 -----------------------------------------------------------|
 -----------------------------------------------------------|
 -2-2-2-2---2-2-2-2---2-2-2-2--2-2-2-2---2-2-2-2---2-2-2-2--|

 


 * * * * * * * * * * * * * * * * * * * * * * * *


 CONT.


 

 
 ----------------------------------------------------------------|
 ----------------------------------------------------------------|
 ----------------------------------------------------------------|
 ----------------------------------------------------------------|
 3-3-3-3-3-3-3-3-3-3-3-3-3-3-3-3-5-5-5-5-5-5-5-5-5-5-5-5-5-5-5-5-|
 ----------------------------------------------------------------|

 


 * * * * * * * * * * * * * * * * * * * * * * * * * * * * * * * *


 


 


 +PREVIOUS MELODY 7\5


 MELODY


 _________________________________________________________________


 -/ \--|


 

 
 10-0-8-0-8-0-10-0-8-0-8-0-10-0-8-0-12-0-8-0-8-0-12-0-8-0-8-0-12-0-8-0-|
 ----------------------------------------------------------------------|
 ----------------------------------------------------------------------|
 ----------------------------------------------------------------------|
 ----------------------------------------------------------------------|

 


 CONT__ ___ __


 ) \ ) \ / \ ) ( )


 

 
 -18-17----18-17---17-19-17----18----18---|
 ------20-------20---------20-------------|
 -----------------------------------------|
 -----------------------------------------|
 -----------------------------------------|
 -----------------------------------------|

 


 RYTHM


 

 
 -----------------------------------------------------------|
 -----------------------------------------------------------|
 -----------------------------------------------------------|
 -----------------------------------------------------------|
 -----------------------------------------------------------|
 -2-2-2-2---2-2-2-2---2-2-2-2--2-2-2-2---2-2-2-2---2-2-2-2--|

 


 * * * * * * * * * * * * * * * * * * * * * * * *


 CONT.


 

 
 -----------------------------------------------------------|
 -----------------------------------------------------------|
 -----------------------------------------------------------|
 -----------------------------------------------------------|
 3-3-3-3-3-3-3-3-3-3-3-3-3-3-3-3-5-5-5-5---5-5-5-5----------|
 ---------------------------------------------------15\-----|

 


 * * * * * * * *


 


 2:16


 


 

 
 ----------------------------------------------------------------------|
 ----------------------------------------------------------------------|
 ----------------------------------------------------------------------|
 ---------3------------3--------3------------3------------3--------3---|
 -0-----7---7--3-----7---7--5-----7--0-----7---7--3-----7---7--5-----7-|
 -0------------3------------5--------0------------3------------5-------|
 ----------------------------------------------------------------------|
 ----------------------------------------------------------------------|
 ----------------------------------------------------------------------|
 ---------3------------3--------3------------3------------3--------3---|
 -0-----7---7--3-----7---7--5-----7--0-----7---7--3-----7---7--5-----7-|
 -0------------3------------5--------0------------3------------5-------|
 --------------------------------------------------------------------|
 --------------------------------------------------------------------|
 --------------------------------------------------------------------|
 -0------------------------------------------------------------------|
 -0--------------------------0---------------------------0-0-0--0-0--|
 -0--------------------------0---------------------------0-0-0--0-0--|

 


 * * * * *


 


 2:43


 


 R


 1 _____


 

 
 --/ \------_________________------------------|
 17-10-13-12---/ \------_____------|
 -T----------16-12-14-12-14-16-14-12---/ \-----|
 -------------T--------------T-------17-14-10-12---|
 -------------------------------------T------------|
 --------------------------------------------------|

 


 CONT


 1 _____


 

 
 --/ \------_________________------------------|
 17-10-13-12---/ \------_____------|
 -T----------16-12-14-12-14-16-14-12---/ \-----|
 -------------T--------------T-------17-14-10-12---|
 -------------------------------------T------------|
 --------------------------------------------------|

 


 [2]  

 
 ----------------------------------------------------------------------|
 ----------------------------------------------------------------------|
 ----------------------------------------------------------------------|
 ---------3------------3--------3------------3------------3--------3---|
 -0-----7---7--3-----7---7--5-----7--0-----7---7--3-----7---7--5-----7-|
 -0------------3------------5--------0------------3------------5-------|

 


 


 R


 1 _____


 

 
 --/ \------_________________------------------|
 17-10-13-12---/ \------_____------|
 -T----------16-12-14-12-14-16-14-12---/ \-----|
 -------------T--------------T-------17-14-10-12---|
 -------------------------------------T------------|
 --------------------------------------------------|

 


 CONT


 1 _____


 

 
 --/ \------_________________------------------|
 17-10-13-12---/ \------_____------|
 -T----------16-12-14-12-14-16-14-12---/ \-----|
 -------------T--------------T-------17-14-10-12---|
 -------------------------------------T------------|
 --------------------------------------------------|

 


 [2]  

 
 ----------------------------------------------------------------------|
 ----------------------------------------------------------------------|
 ----------------------------------------------------------------------|
 ---------3------------3--------3------------3------------3--------3---|
 -0-----7---7--3-----7---7--5-----7--0-----7---7--3-----7---7--5-----7-|
 -0------------3------------5--------0------------3------------5-------|

 


 


 R


 1 _____


 

 
 --/ \------_________________------------------|
 17-10-13-12---/ \------_____------|
 -T----------16-12-14-12-14-16-14-12---/ \-----|
 -------------T--------------T-------17-14-10-12---|
 -------------------------------------T------------|
 --------------------------------------------------|

 


 CONT


 1 _____


 

 
 --/ \------_________________------------------|
 17-10-13-12---/ \------_____------|
 -T----------16-12-14-12-14-16-14-12---/ \-----|
 -------------T--------------T-------17-14-10-12---|
 -------------------------------------T------------|
 --------------------------------------------------|

 


 [2]  

 
 ----------------------------------------------------------------------|
 ----------------------------------------------------------------------|
 ----------------------------------------------------------------------|
 ---------3------------3--------3------------3------------3--------3---|
 -0-----7---7--3-----7---7--5-----7--0-----7---7--3-----7---7--5-----7-|
 -0------------3------------5--------0------------3------------5-------|

 


 


 R


 1 _____


 

 
 --/ \------_________________------------------|
 17-10-13-12---/ \------_____------|
 -T----------16-12-14-12-14-16-14-12---/ \-----|
 -------------T--------------T-------17-14-10-12---|
 -------------------------------------T------------|
 --------------------------------------------------|

 


 CONT


 1 _____


 

 
 --/ \------_________________------------------|
 17-10-13-12---/ \------_____------|
 -T----------16-12-14-12-14-16-14-12---/ \-----|
 -------------T--------------T-------17-14-10-12---|
 -------------------------------------T------------|
 --------------------------------------------------|

 


 [2]  

 
 ----------------------------------------------------------------------|
 ----------------------------------------------------------------------|
 ----------------------------------------------------------------------|
 ---------3------------3--------3------------3------------3--------3---|
 -0-----7---7--3-----7---7--5-----7--0-----7---7--3-----7---7--5-----7-|
 -0------------3------------5--------0------------3------------5-------|

 


 


 1 _____


 

 
 --/ \------_________________------------------|
 17-10-13-12---/ \------_____------|
 -T----------16-12-14-12-14-16-14-12---/ \-----|
 -------------T--------------T-------17-14-10-12---|
 -------------------------------------T------------|
 --------------------------------------------------|

 


 [2]  

 
 ---------------------------------------------------------------|
 ---------------------------------------------------------------|
 ---------------------------------------------------------------|
 -0-------------------------------------------------------------|
 -0-------------------------------------------------------------|
 -0-------------------------------------------------------------|

 


 


 


 CONT


 1 _____


 

 
 --/ \------_________________------------------|
 17-10-13-12---/ \------_____------|
 -T----------16-12-14-12-14-16-14-12---/ \-----|
 -------------T--------------T-------17-14-10-12---|
 -------------------------------------T------------|
 --------------------------------------------------|

 


 _____


 

 
 --/ \------_________________------------------|
 17-10-13-12---/ \------_____------|
 -T----------16-12-14-12-14-16-14-12---/ \-----|
 -------------T--------------T-------17-14-10-12---|
 -------------------------------------T------------|
 --------------------------------------------------|

 


 


 _____


 

 
 --/ \------________---------------------|
 17-10-13-12---/ \--------------------|
 -T----------16-12-14-12-14------------------|
 -------------T------------------------------|
 --------------------------------------------|
 --------------------------------------------|


Important: The song above is NOT stored on the Chordie server. The original song is hosted at www.guitaretab.com. Chordie works as a search engine and provides on-the-fly formatting. Chordie does not index songs against artists'/composers' will. To remove this song please click here.

This song is displayed as text-only. Transposing and tuning is only available for chordpro-songs.
Rate #1 of 1 versions

Jango Player

Login - add to songbook

SHARE PAGE  



You need to log in to post comments