Guitar Tabs, Chords and Lyrics
Server problems seems to be fixed. Chordie has been experiencing problems with songs disappearing. These issues now seems to be fixed, but still verifying the fix. If you find anything strange, please email admin@chordie.com.


Guns for Show, Knives for a Pro  Parkway Drive

GUNS FOR SHOW,KNIVES FOR A PRO
[B-F#-B-E-G#-C#]  
TABBED BY andherembrace
[B]  
 
 ------------------------------------------------------------------|
 ------------------------------------------------------------------|
 ------------------------------------------------------------------|
 -5555----6666----5555----3333-----5555----6666----5555----3333----|
 -----3333----3333----3333----1111-----3333----3333----3333----1111|
 ------------------------------------------------------------------|
 ------------------------------------------------------------------|
 ------------------------------------------------------------------|
 ------------------------------------------------------------------|
 -5555----6666----5555----3333-----5555----6666----5555----3333----|
 -----3333----3333----3333----1111-----3333----3333----3333----1111|
 ------------------------------------------------------------------|

0:12
 
 ------------------------------------------------------------------------|
 ------------------------------------------------------------------------|
 --------__------------------------__-----------___-----____------___----|
 -------/ \----------------------/ \---------/ \---/ \----/ \---|
 -0--0-585858-0--0--0-------0--0-585858-0--0--5-8-5-8-7-10-7-10-3-7-3-7--|
 -0--0--------0--0--0-------0--0--------0--0-----------------------------|

* * * * * * * * *
 
 ------------------------------------------------------------------------|
 ------------------------------------------------------------------------|
 --------__------------------------__-----------___-----____------___----|
 -------/ \----------------------/ \---------/ \---/ \----/ \---|
 -0--0-585858-0--0--0-------0--0-585858-0--0--5-8-5-8-7-10-7-10-3-7-3-7--|
 -0--0--------0--0--0-------0--0--------0--0-----------------------------|

* * * * * * * * *
0:24
L
 
 ------------------------------------------------------------------------|
 ------------------------------------------------------------------------|
 --------__------------------------__-----------___-----____------___----|
 -------/ \----------------------/ \---------/ \---/ \----/ \---|
 -0--0-585858-0--0--0-------0--0-585858-0--0--5-8-5-8-7-10-7-10-3-7-3-7--|
 -0--0--------0--0--0-------0--0--------0--0-----------------------------|

* * * * * * * * *
R
 
 -------------------------------------------------------------------------|
 -------------------------------------------------------------------------|
 -------__----------------------____----------____------------------------|
 ------/ \--------------------/ \--------/ \-----_____------____---|
 0--0-585858-0--0--0----0--0-812812812-0--0-8-12-8-12--/ \----/ \--|
 0--0--------0--0--0----0--0-----------0--0----------10-14-10-14-7-10-7-10|

* * * * * * * * *
0:37
L
 
 ----------------------------------------------------------------|
 ----------------------------------------------------------------|
 ----------------------------------------------------------------|
 -5555----6666----5555----3333-----5555----6666----5555-----P----|
 -----3333----3333----3333----1111-----3333----3333----3333--S---|
 -------------------------------------------------------------\--|

R
 
 ----------------------------------------------------------------|
 ----------------------------------------------------------------|
 ----------------------------------------------------------------|
 -5555----6666----5555----3333-----5555----6666----8888-----P----|
 -----3333----3333----3333----1111-----3333----6666----8888--S---|
 -------------------------------------------------------------\--|

R
 
 --------------------------------------|
 --------------------------------------|
 --------------------------------------|
 -0------------------------------2222--|
 -0-------------------12---------------|
 -0-------------------12\--------------|

0:46
 
 ---------------------------------------------------------------|
 ---------------------------------------------------------------|
 ---------------------------------------------------------------|
 -----------------5---7-----------------------33332222----2222--|
 ---0--0-0---------------8---5---0--0-0---3333--------3333------|
 -0-0--0-0-0-0-0----0--0---0---0-0--0-0-0-----------------------|

* * * * * * * * *
 
 ---------------------------------------------------------------|
 ---------------------------------------------------------------|
 ---------------------------------------------------------------|
 -----------------5---7-----------------------33332222-----PH---|
 ---0--0-0---------------8---5---0--0-0---3333--------3333-3~~--|
 -0-0--0-0-0-0-0----0--0---0---0-0--0-0-0-----------------------|

* * * * * * * * *
 
 ---------------------------------------------------------------|
 ---------------------------------------------------------------|
 ---------------------------------------------------------------|
 -----------------5---7-----------------------33332222----2222--|
 ---0--0-0---------------8---5---0--0-0---3333--------3333------|
 -0-0--0-0-0-0-0----0--0---0---0-0--0-0-0-----------------------|

* * * * * * * * *
 
 -----------------------------------------------------------------|
 -----------------------------------------------------------------|
 -----------------------------------------------------------------|
 -----------------5---7-----------------------33332222-----2----0-|
 ---0--0-0---------------8---5---0--0-0---3333--------3333------0-|
 -0-0--0-0-0-0-0----0--0---0---0-0--0-0-0-----------------------0||

* * * * * * * * *
1:12
 
 -----------------------------------------------------------------------|
 -----------------------------------------------------------------------|
 -----------------------------------------------------___--------___----|
 --------0----------------0----------------0---------/ \------/ \---|
 0-1-0---0---0000-0-1-0---0---0000-0-1-0---0---0000-0-1-3-0----0-3-4-0--|
 0-1-0-0-0-0-0000-0-1-0-0-0-0-0000-0-1-0-0-0-0-0000---------1----------3|

* * **** * * **** * * ****
 
 -----------------------------------------------------------------------|
 -----------------------------------------------------------------------|
 -----------------------------------------------------___--------___----|
 --------0----------------0----------------0---------/ \------/ \---|
 0-1-0---0---0000-0-1-0---0---0000-0-1-0---0---0000-0-1-3-0----0-3-4-0--|
 0-1-0-0-0-0-0000-0-1-0-0-0-0-0000-0-1-0-0-0-0-0000---------1----------3|

* * **** * * **** * * **** V
1;31
 
 -----------------------------------------------------------------|
 -----------------------------------------------------------------|
 -----------------------------------------------------------------|
 -----------------------------------------------------------------|
 0--1--0---0--0-0-0-0--0--1--0---0--0-0-0-0--0--1--0---0--0-0-0-0-|
 0--1--0---0--0-0-0-0--0--1--0---0--0-0-0-0--0--1--0---0--0-0-0-0-|

* * * * * * * * * * * * * * * * * * * * * * * *
 
 ------------------------|
 ------------------------|
 ---___---------___------|
 --/ \-------/ \-----|
 -0-1-3-0-1---0-3-4-0-3--|
 ---------1-----------3--|
 -----------------------------------------------------------------|
 -----------------------------------------------------------------|
 -----------------------------------------------------------------|
 -----------------------------------------------------------------|
 0--1--0---0--0-0-0-0--0--1--0---0--0-0-0-0--0--1--0---0--0-0-0-0-|
 0--1--0---0--0-0-0-0--0--1--0---0--0-0-0-0--0--1--0---0--0-0-0-0-|

* * * * * * * * * * * * * * * * * * * * * * * *
1:47
 
 ------------------------------------------|
 ------------------------------------------|
 ---___---------___---------___------------|
 --/ \-------/ \-------/ \-----------|
 -0-1-3-0-1---0-3-4-0-3---3-6-3-0-0--------|
 ---------1-----------3-----------0--------|
 ------------------------------------------|
 ------------------------------------------|
 ---___---------___---------___------------|
 --/ \-------/ \-------/ \-----------|
 -0-1-3-0-1---0-3-4-0-3---3-6-3-0-0--------|
 ---------1-----------3-----------0--------|
 ------------------------------------------|
 ------------------------------------------|
 ---___---------___---------___------------|
 --/ \-------/ \-------/ \-----------|
 -0-1-3-0-1---0-3-4-0-3---3-6-3-0-0--------|
 ---------1-----------3-----------0--------|
 ----------------------------------|
 ----------------------------------|
 ---___---------___---------___----|
 --/ \-------/ \-------/ \---|
 -0-1-3-0-1---0-3-4-0-3---3-6-3-0--|
 ---------1-----------3------------|

L
 
 --------------------------------------------------------------|
 --------------------------------------------------------------|
 -------------------------------------___-----____------___----|
 ------------------------------------/ \---/ \----/ \---|
 0--0----0--0--0----0--0--0---0--0--5-8-5-8-7-10-7-10-3-7-3-7--|
 0--0----0--0--0----0--0--0---0--0-----------------------------|

* * * * * * * * * *
R
 
 ---------------------------------------------------------------|
 ---------------------------------------------------------------|
 ---------------------------------------------------------------|
 ---------------------------------------------------------------|
 0--0----------------------------0------------------------------|
 0--0----------------------------0------------------------------|

* *
L
 
 --------------------------------------------------------------|
 --------------------------------------------------------------|
 -------------------------------------___-----____------___----|
 ------------------------------------/ \---/ \----/ \---|
 0--0----0--0--0----0--0--0---0--0--5-8-5-8-7-10-7-10-3-7-3-7--|
 0--0----0--0--0----0--0--0---0--0-----------------------------|

* * * * * * * * * *
R
 
 --------------------------------------------------------------|
 --------------------------------------------------------------|
 -------------------------------------___-----____------___----|
 ------------------------------------/ \---/ \----/ \---|
 0--0-------0--0-------0--0------0--5-8-5-8-7-10-7-10-3-7-3-7--|
 0--0-------0--0-------0--0------0-----------------------------|

* * * * * * *
[B]  
 
 --------------------------------------------------------------|
 --------------------------------------------------------------|
 -------------------------------------___-----____------___----|
 ------------------------------------/ \---/ \----/ \---|
 0--0----0--0--0----0--0--0---0--0--5-8-5-8-7-10-7-10-3-7-3-7--|
 0--0----0--0--0----0--0--0---0--0-----------------------------|

* * * * * * * * * *
 
 -----------------------------------|
 -----------------------------------|
 -----------------------------------|
 -----------------------------------|
 0--0----0--0--0----0--0--0---0--0--|
 0--0----0--0--0----0--0--0---0--0--|

* * * * * * * * * *
L
 
 ------------------------------------------------------------|
 ------------------------------------------------------------|
 ------------------------------------------------------------|
 -------------------------------------------------------PH---|
 0--0----0--0--0----0--0--0---0--0-0-888888101010101010-10~~~|
 0--0----0--0--0----0--0--0---0--0-0-------------------------|

* * * * * * * * * * *
R
 
 -----------------------------------------------------|
 -----------------------------------------------------|
 -------------------------------------------------PH--|
 ------------------------------------777777-------7~~~|
 0--0----0--0--0----0--0--0---0--0-0-------777777-----|
 0--0----0--0--0----0--0--0---0--0-0------------------|

* * * * * * * * * * *
[B]  
 
 -----------|
 -----------|
 -----------|
 -----------|
 -0--0------|
 -0--0------|

* *

Important: The song above is NOT stored on the Chordie server. The original song is hosted at www.guitaretab.com. Chordie works as a search engine and provides on-the-fly formatting. Chordie does not index songs against artists'/composers' will. To remove this song please click here.

Text color:
Chord color:
Chord grids: 
Font size:    
Page size: 

B
Rate #1 of 1 versions

Login - add to songbook

SHARE PAGE  




You need to log in to post comments