Guitar Tabs, Chords and Lyrics
Server problems seems to be fixed. Chordie has been experiencing problems with songs disappearing. These issues now seems to be fixed, but still verifying the fix. If you find anything strange, please email admin@chordie.com.


Hollow  Parkway Drive

[A-E-A-D-F#-B]  
TABBED BY andherembrace
1 R
 
 -----------------------------------------------------------------|
 -----------------------------------------------------------------|
 -----------------------------------------------------------------|
 --------------------------------------------------------------10-|
 -7-8-7--------7-8-7-------7-8----7-8-7--------7-8-7-------7-8----|
 -------10-7---------10-7------5--------10-7---------10-7---------|

0:07
L
 
 ---------------------------------------------------------------|
 ---------------------------------------------------------------|
 ---------------------------------------------------------------|
 ---------------------------------------------------------P-----|
 -7-8-7----3---------------5--7----------------------------S----|
 -------10-3---------------5--7-----------------------------\---|

R
 
 -----------------------------------------------------------------|
 -----------------------------------------------------------------|
 -----------------------------------------------------------------|
 --------------------------------------------------------------10-|
 -7-8-7--------7-8-7-------7-8----7-8-7--------7-8-7-------7-8----|
 -------10-7---------10-7------5--------10-7---------10-7---------|

L
 
 -----------------------------------------------------------------|
 -----------------------------------------------------------------|
 -----------------------------------------------------------------|
 -----------------------------------------------------------------|
 -7--7--7------7--7--7------7-5---7--7--7------7--7--7-----7-5----|
 -7--7--7------7--7--7------7-5---7--7--7------7--7--7-----7-5----|

* * * * * * * * * * * * * *
R
 
 -----------------------------------------------------------------|
 -----------------------------------------------------------------|
 -----------------------------------------------------------------|
 --------------------------------------------------------------10-|
 -7-8-7--------7-8-7-------7-8----7-8-7--------7-8-7-------7-8----|
 -------10-7---------10-7------5--------10-7---------10-7---------|

L
 
 -----------------------------------------------------------------|
 -----------------------------------------------------------------|
 -----------------------------------------------------------------|
 -----------------------------------------------------------------|
 -7--7--7------7--7--7------7-5---3------------------------5------|
 -7--7--7------7--7--7------7-5---3------------------------5------|

* * * * * * *
R
 
 -----------------------------------------------------------------|
 -----------------------------------------------------------------|
 -----------------------------------------------------------------|
 --------------------------------------------------------------10-|
 -7-8-7--------7-8-7-------7-8----7-8-7--------7-8-7-------7-8----|
 -------10-7---------10-7------5--------10-7---------10-7---------|

0;29
L
 
 --------------------------------------------------------------------|
 --------------------------------------------------------------------|
 --------------------------------------------------------------------|
 --------------------------------------------------------5-----7---7-|
 -0------------------------------------------------------------------|
 -0----------------------------------------------------3---3-5---5---|

|
R
 
 --------------------------------------------------------------------|
 --------------------------------------------------------------------|
 --------------------------------------------------------------------|
 --------------------------------------------------------5-----7---7-|
 -8-8-8------7--7--7--------------------8-8-8------7-----------------|
 -7-7-7-0-0-10-10-10-0-0-0-0-0-0000-0-0-7-7-7-0-0-10-0-3---3-5---5---|

* * * * **** * * *
L
 
 ----------------------------------------------------------|
 ----------------------------------------------------------|
 ----------------------------------------------------------|
 ----------------------------------------------------------|
 -0---------------------------------------------------3----|
 -0---------------------------------------------------3----|

|
R
 
 ----------------------------------------------------------|
 ----------------------------------------------------------|
 ----------------------------------------------------------|
 ----------------------------------------------------------|
 -8-8-8------7--7--7-------------------8-8-8------7---3----|
 -7-7-7-0-0-10-10-10-0-0-0-0-0-0-0-0-0-7-7-7-0-0-10-0-3----|

* * * * * * *
0:41
[B]  
 
 --------------------------------------------------------------------|
 --------------------------------------------------------------------|
 --------------------------------------------------------------------|
 --------------------------------------------------------5-----7---7-|
 -8-8-8------7--7--7--------------------8-8-8------7-----------------|
 -7-7-7-0-0-10-10-10-0-0-0-0-0-0000-0-0-7-7-7-0-0-10-0-3---3-5---5---|

* * * * **** * * *
 
 -----------------------------------------------------------------------|
 -----------------------------------------------------------------------|
 -----------------------------------------------------------------------|
 -----------------------------------------------------------------------|
 -8-8-8------7--7--7-------------------8-8-8------7---------------------|
 -7-7-7-0-0-10-10-10-0-0-0-0-0-0-0-0-0-7-7-7-0-0-10-0-0-33333-7-55555-7-|

* * * * * * *
0:53
L
 
 ----------------------------------------------------------------|
 ----------------------------------------------------------------|
 ----------------------------------------------------------------|
 ------------7---------------------------------------------------|
 -0---8-10-------10---8---10-8-7---------773-773---------773-773-|
 -0--------0---0----0---0--------333-333---------555-555---------|

* * * * *** *** *** *** *** *** *** ***
R
 
 --------------------------------------------------------------|
 --------------------------------------------------------------|
 --------------------------------------------------------------|
 --------------------------------------------------------------|
 -0---5-7----8---7---5---7-5-3---------773-773---------773-773-|
 -0--------0---0---0---0-------333-333---------555-555---------|

* * * * *** *** *** *** *** *** *** ***
[B]  
 
 -----------------------------------------------------|
 -----------------------------------------------------|
 -----------------------------------------------------|
 -----------------------------------------------------|
 -000-000----000-000----3----773-773--5----773-773----|
 -000-000----000-000----3-------------5---------------|

*** *** *** *** *** *** *** ***
L
 
 ----------------------------------------------------------------|
 ----------------------------------------------------------------|
 ----------------------------------------------------------------|
 ------------7---------------------------------------------------|
 -0---8-10-------10---8---10-8-7---------773-773---------773-773-|
 -0--------0---0----0---0--------333-333---------555-555---------|

* * * * *** *** *** *** *** *** *** ***
R
 
 --------------------------------------------------------------|
 --------------------------------------------------------------|
 --------------------------------------------------------------|
 --------------------------------------------------------------|
 -0---5-7----8---7---5---7-5-3---------773-773---------773-773-|
 -0--------0---0---0---0-------333-333---------555-555---------|

* * * * *** *** *** *** *** *** *** ***
L
 
 ------------------------------------------|
 ------------------------------------------|
 ------------------------------------------|
 ------------------------------------------|
 -000-000----000-000----3----773-773--5----|
 -000-000----000-000----3-------------5----|

*** *** *** *** *** *** |
R
 
 ------------------------------------------|
 ------------------------------------------|
 ------------------------------------------|
 ----------------------------552-552-------|
 -000-000----000-000----3-------------5----|
 -000-000----000-000----3-------------5----|

*** *** *** *** *** *** |
[B]  
 
 -----------------------------------------------------|
 -----------------------------------------------------|
 -----------------------------------------------------|
 -0-------------------------0------------------P------|
 -0-------------------------0-------------------S-----|
 -0-------------------------0--------------------\----|

1:27
L
 
 -----------------------------------------------------------------|
 -----------------------------------------------------------------|
 -----------------------------------------------------------------|
 -----------------------------------------------------------------|
 -0-----------------------------------------------777-777-888-333-|
 -0---------------------------------------------------------------|

R *** *** *** ***
 
 -----------------------------------------------------------------|
 -----------------------------------------------------------------|
 --------10--------------10--------------10-----------------------|
 ---------X---------------X---------------X-----------------------|
 ---------8---------------8---------------8-------777-777-888-333-|
 -000-000---0-000-000-000---0-000-000-000---0-000-----------------|

*** *** * *** *** *** * *** *** *** * *** *** *** *** ***
[B]  
 
 ---------------------------------------------------------------------|
 ---------------------------------------------------------------------|
 --------10--------------10--------------10---------------------------|
 ---------X---------------X---------------X---------------------------|
 ---------8---------------8---------------8-------777-777-888-333-12--|
 -000-000---0-000-000-000---0-000-000-000---0-000-----------------12\-|

*** *** * *** *** *** * *** *** *** * *** *** *** *** ***
R PLAYS 4TH STRING ALSO
 
 ------------------------------------------------------------------|
 ------------------------------------------------------------------|
 --------10--------------10--------------10------------------------|
 ---------X---------------X---------------X------------------------|
 -000-000-8-0-000-000-000-8-0-000-000-000-8-0-000-777-777-888-333--|
 -000-000---0-000-000-000---0-000-000-000---0-000------------------|

*** *** * *** *** *** * *** *** *** * *** *** *** *** ***
 
 ------------------------------------------------------------------|
 ------------------------------------------------------------------|
 --------10--------------10--------------10------------------------|
 ---------X---------------X---------------X------------------------|
 -000-000-8-0-000-000-000-8-0-000-000-000-8-0-000-777-777-888-333--|
 -000-000---0-000-000-000---0-000-000-000---0-000------------------|

*** *** * *** *** *** * *** *** *** * *** *** *** *** ***
1:56
L
 
 ------------------------------------------------------------------|
 ------------------------------------------------------------------|
 --------10--------------10--------------10------------------------|
 ---------X---------------X---------------X------------------------|
 -000-000-8-0-000-000-000-8-0-000-000-000-8-0-000-777-777-888-333--|
 -000-000---0-000-000-000---0-000-000-000---0-000------------------|

*** *** * *** *** *** * *** *** *** * *** *** *** *** ***
R
 
 ----------------------------------------------------------------------------|
 ----------------------------------------------------------------------------|
 ---------14---------------14---------------14-------------------------------|
 ----------X----------------X----------------X-------------------------------|
 -000-000-12-0-000-000-000-12-0-000-000-000-12-0-000-101010-101010-121212-777|
 -000-000----0-000-000-000----0-000-000-000----0-000-------------------------|

*** *** * *** *** *** * *** *** *** * *** * ** * * * * * * ***
L
 
 ------------------------------------------------------------------|
 ------------------------------------------------------------------|
 --------10--------------10--------------10------------------------|
 ---------X---------------X---------------X------------------------|
 -000-000-8-0-000-000-000-8-0-000-000-000-8-0-000-777-777-888-333--|
 -000-000---0-000-000-000---0-000-000-000---0-000------------------|

*** *** * *** *** *** * *** *** *** * *** *** *** *** ***
R
 
 ----------------------------------------------------------------------------|
 ----------------------------------------------------------------------------|
 ---------14---------------14---------------14-------------------------------|
 ----------X----------------X----------------X-------------------------------|
 -000-000-12-0-000-000-000-12-0-000-000-000-12-0-000-101010-101010-121212-777|
 -000-000----0-000-000-000----0-000-000-000----0-000-------------------------|

*** *** * *** *** *** * *** *** *** * *** * * * * * * * * * ***
2:11
[B]  
 
 --------------------------------------------------------------------|
 --------------------------------------------------------------------|
 --------------------------------------------------------------------|
 --------------------------------------------------------5-----7---7-|
 -8-8-8------7--7--7--------------------8-8-8------7-----------------|
 -7-7-7-0-0-10-10-10-0-0-0-0-0-0000-0-0-7-7-7-0-0-10-0-3---3-5---5---|

* * * * **** * * *
 
 ------------------------------------------------------------|
 ------------------------------------------------------------|
 ------------------------------------------------------------|
 ------------------------------------------------------------|
 -8-8-8------7--7--7-------------------8-8-8------7-----3----|
 -7-7-7-0-0-10-10-10-0-0-0-0-0-0-0-0-0-7-7-7-0-0-10-0-0-3----|

* * * * * * *
L
 
 ----------------------------------------------------------------|
 ----------------------------------------------------------------|
 ----------------------------------------------------------------|
 ------------7---------------------------------------------------|
 -0---8-10-------10---8---10-8-7---------773-773---------773-773-|
 -0--------0---0----0---0--------333-333---------555-555---------|

* * * * *** *** *** *** *** *** *** ***
R
 
 --------------------------------------------------------------|
 --------------------------------------------------------------|
 --------------------------------------------------------------|
 --------------------------------------------------------------|
 -0---5-7----8---7---5---7-5-3---------773-773---------773-773-|
 -0--------0---0---0---0-------333-333---------555-555---------|

* * * * *** *** *** *** *** *** *** ***
[B]  
 
 -----------------------------------------------------|
 -----------------------------------------------------|
 -----------------------------------------------------|
 -----------------------------------------------------|
 -000-000----000-000----3----773-773--5----773-773----|
 -000-000----000-000----3-------------5---------------|

*** *** *** *** *** *** *** ***
L
 
 ----------------------------------------------------------------|
 ----------------------------------------------------------------|
 ----------------------------------------------------------------|
 ------------7---------------------------------------------------|
 -0---8-10-------10---8---10-8-7---------773-773---------773-773-|
 -0--------0---0----0---0--------333-333---------555-555---------|

* * * * *** *** *** *** *** *** *** ***
R
 
 --------------------------------------------------------------|
 --------------------------------------------------------------|
 --------------------------------------------------------------|
 --------------------------------------------------------------|
 -0---5-7----8---7---5---7-5-3---------773-773---------773-773-|
 -0--------0---0---0---0-------333-333---------555-555---------|

* * * * *** *** *** *** *** *** *** ***
L
 
 ------------------------------------------|
 ------------------------------------------|
 ------------------------------------------|
 ------------------------------------------|
 -000-000----000-000----3----773-773--5----|
 -000-000----000-000----3-------------5----|

*** *** *** *** *** *** |
R
 
 ------------------------------------------|
 ------------------------------------------|
 ------------------------------------------|
 ----------------------------552-552-------|
 -000-000----000-000----3-------------5----|
 -000-000----000-000----3-------------5----|

*** *** *** *** *** *** |
2;46
[B]  
 
 ----------------------------------------------------|
 ----------------------------------------------------|
 ----------------------------------------------------|
 ----------------------------------------------------|
 -0--0--0--0--0--0--0--0--0--0--0--0-777-777-888-333-|
 -0--0--0--0--0--0--0--0--0--0--0--0-----------------|

* * * * * * * * * * * * *** *** *** ***
L
 
 ------------------------------------------------------------|
 ------------------------------------------------------------|
 ------------------------------------------------------------|
 ------------------------------------------------------------|
 -0--0--0--0000-0--0--0--0000-0--0--0--0--777-777-888-333-0--|
 -0--0--0--0000-0--0--0--0000-0--0--0--0------------------0--|

*| *| *| **** *| *| *| **** *| *| *| *| *** *** *** *** |
R
 
 --------------------------------------------------------------------|
 --------------------------------------------------------------------|
 --------------------------------------------------------------------|
 --------------------------------------------------------------------|
 -0--0--0--0000-0--0--0--0000-0--0--0--0-101010-101010-121212-777-0--|
 -0--0--0--0000-0--0--0--0000-0--0--0--0--------------------------0--|

*| *| *| **** *| *| *| **** *| *| *| *| * * * * * * * * * *** |

Important: The song above is NOT stored on the Chordie server. The original song is hosted at www.guitaretab.com. Chordie works as a search engine and provides on-the-fly formatting. Chordie does not index songs against artists'/composers' will. To remove this song please click here.

Text color:
Chord color:
Chord grids: 
Font size:    
Page size: 

B
Rate #1 of 2 versions

Jango Player

Login - add to songbook

SHARE PAGE  



You need to log in to post comments