Guitar Tabs, Chords and Lyrics
Major upgrade!! After one year development the new version of Chordie is now online! Please give feedback.


Pandora  Parkway Drive

[B-F#-B-E-G#-C#]  
TABBED BY andherembrace
[1]  
 
 ------------------------------------------------------------------|
 ------------------------------------------------------------------|
 -141414141010101012121212--------141414141010101012121212---------|
 -------------------------14141414------------------------14141414-|
 ------------------------------------------------------------------|
 ------------------------------------------------------------------|

[2]  
 
 ------------------------------------------------------------------|
 ------------------------------------------------------------------|
 ------------------------------------------------------------------|
 -0----------------------------------------------------------------|
 -0----------------------------------------------------------------|
 -0----------------------------------------------------------------|

[1]  
 
 -------------------------------------------------------------------|
 -------------------------------------------------------------------|
 -10101010------------------------10101010--------------------------|
 ---------121212121414141410101010---------121212121414141410101010-|
 -------------------------------------------------------------------|
 -------------------------------------------------------------------|

[2]  
 
 -------------------------------------------------------------------|
 -------------------------------------------------------------------|
 -------------------------------------------------------------------|
 -12-------------------------------12-------------------------------|
 -8--------------------------------10-------------------------------|
 -8--------------------------------10-------------------------------|

[1]  
 
 ------------------------------------------------------------------|
 ------------------------------------------------------------------|
 -141414141010101012121212--------141414141010101012121212---------|
 -------------------------14141414------------------------14141414-|
 ------------------------------------------------------------------|
 ------------------------------------------------------------------|

[2]  
 
 ------------------------------------------------------------------|
 ------------------------------------------------------------------|
 ------------------------------------------------------------------|
 -0----------------------------------------------------------------|
 -0----------------------------------------------------------------|
 -0----------------------------------------------------------------|

[1]  
 
 -------------------------------------------------------------------|
 -------------------------------------------------------------------|
 -10101010------------------------10101010--------------------------|
 ---------121212121414141410101010---------121212121414141410101010-|
 -------------------------------------------------------------------|
 -------------------------------------------------------------------|

[2]  
 
 -------------------------------------------------------------------|
 -------------------------------------------------------------------|
 -------------------------------------------------------------------|
 -12-------------------------------12------P------------------------|
 -8--------------------------------10-------S-----------------------|
 -8--------------------------------10--------\----------------------|

[1]  
 
 ------------------------------------------------------------------|
 ------------------------------------------------------------------|
 -141414141010101012121212--------141414141010101012121212---------|
 -------------------------14141414------------------------14141414-|
 ------------------------------------------------------------------|
 ------------------------------------------------------------------|

CONT.
 
 -------------------------------------------------------------------|
 -------------------------------------------------------------------|
 -10101010------------------------10101010--------------------------|
 ---------121212121414141410101010---------121212121414141410101010-|
 -------------------------------------------------------------------|
 -------------------------------------------------------------------|

[2]  
 
 ---------------------------------------------------------------------|
 ---------------------------------------------------------------------|
 ---------------------------------------------------------------------|
 ---------------------------------------------------------------------|
 -----7---8---7-5-----7---8---7-5-----7---8---7-5-------8----10---8-7-|
 -0-0---0---0-----0-0---0---0-----8-8---8---8-----10-10---10----10----|

* * * * * * * * * * * * * * * *
[1]  
 
 ------------------------------------------------------------------|
 ------------------------------------------------------------------|
 -141414141010101012121212--------141414141010101012121212---------|
 -------------------------14141414------------------------14141414-|
 ------------------------------------------------------------------|
 ------------------------------------------------------------------|

CONT.
 
 -------------------------------------------------------------------|
 -------------------------------------------------------------------|
 -10101010------------------------10101010--------------------------|
 ---------121212121414141410101010---------121212121414141410101010-|
 -------------------------------------------------------------------|
 -------------------------------------------------------------------|

[2]  
 
 ---------------------------------------------------------------------|
 ---------------------------------------------------------------------|
 ---------------------------------------------------------------------|
 ---------------------------------------------------------------------|
 -----7---8---7-5-----7---8---7-5-----7---8---7-5-------8----10---8-7-|
 -0-0---0---0-----0-0---0---0-----8-8---8---8-----10-10---10----10----|

* * * * * * * * * * * * * * * *
0:22
[1]  
 
 ------------------------------------------------------|
 ------------------------------------------------------|
 ------------------------------------------------------|
 -0----------------10------5-------------3-------------|
 -0----------------10------5-------------3-------------|
 -0----------------10------5-------------3-------------|

[2]  
 
 ------------------------------------------------------|
 ------------------------------------------------------|
 ------------------------------------------------------|
 -777------------------------------------555-----------|
 ----888555888555---777---------555777888---888777555--|
 ----------------777---101010555-----------------------|

[1]  
 
 --------------------------------------------------------------------|
 -----------------------------------------------------------_--------|
 --------------------------------------12------------------/ \-------|
 0------------------------------12-------12-10\7-----7----5-7-5------|
 0-----------------5--------------------------------------------8----|
 0-----------------5------10-10----10------------8-8----8------------|

* * * * * *
[2]  
 
 ------------------------------------------------------|
 ------------------------------------------------------|
 ------------------------------------------------------|
 -777------------------------------------555-----------|
 ----888555888555---777---------555777888---888777555--|
 ----------------777---101010555-----------------------|

0:33
L
 
 -------------------------------------------------------------|
 -------------------------------------------------------------|
 ------10--------10--------10---------------------------------|
 -------X---------X---------X---------------------------------|
 -00000-8\--00000-8\--00000-8\---8888101010101212121210101010-|
 -00000-----00000-----00000-----------------------------------|

***** ***** *****
 
 ----------------------------------------------------|
 ----------------------------------------------------|
 -------7---------7---------7------------------------|
 -------X---------X---------X------------------------|
 -00000-5\--00000-5\--00000-5\---5555777788887777----|
 -00000-----00000-----00000--------------------------|

***** ***** *****
L
 
 -------------------------------------------------------------|
 -------------------------------------------------------------|
 ------10--------10--------10---------------------------------|
 -------X---------X---------X---------------------------------|
 -00000-8\--00000-8\--00000-8\---8888101010101212121210101010-|
 -00000-----00000-----00000-----------------------------------|

***** ***** *****
 
 ----------------------------------------------------|
 ----------------------------------------------------|
 -------7---------7---------7------------------------|
 -------X---------X---------X------------------------|
 -00000-5\--00000-5\--00000-5\---5555777788887777----|
 -00000-----00000-----00000--------------------------|

***** ***** *****
0:44
[1]  
 
 ------------------------------------------------------------------|
 ------------------------------------------------------------------|
 -141414141010101012121212--------141414141010101012121212---------|
 -------------------------14141414------------------------14141414-|
 ------------------------------------------------------------------|
 ------------------------------------------------------------------|

[2]  
 
 ------------------------------------------------------------------|
 ------------------------------------------------------------------|
 ------------------------------------------------------------------|
 -0-----------------------------------------------10---------------|
 -0-----------------------------------------------10---------------|
 -0-----------------------------------------------10---------------|

[1]  
 
 -------------------------------------------------------------------|
 -------------------------------------------------------------------|
 -10101010------------------------10101010--------------------------|
 ---------121212121414141410101010---------121212121414141410101010-|
 -------------------------------------------------------------------|
 -------------------------------------------------------------------|

[2]  
 
 ---------------------------------------------------|
 ---------------------------------------------------|
 ------------------------------------------2--------|
 -3-----------------------------------2------3-2~---|
 -3-------------------------------------------------|
 -3-------------------------------0-0---0-----------|

* * *
[1]  
 
 ------------------------------------------------------------------|
 ------------------------------------------------------------------|
 -141414141010101012121212--------141414141010101012121212---------|
 -------------------------14141414------------------------14141414-|
 ------------------------------------------------------------------|
 ------------------------------------------------------------------|

[2]  
 
 ------------------------------------------------------------------|
 ------------------------------------------------------------------|
 ------------------------------------------------------------------|
 -0-----------------------------------------------10---------------|
 -0------------------------------------------------8---------------|
 -0------------------------------------------------8---------------|

[1]  
 
 -------------------------------------------------------------------|
 -------------------------------------------------------------------|
 -10101010------------------------10101010--------------------------|
 ---------121212121414141410101010---------121212121414141410101010-|
 -------------------------------------------------------------------|
 -------------------------------------------------------------------|

[2]  
 
 ---------------------------------------------------------|
 ------------------------------------------------_--------|
 -----------------12----------------------------/ \-------|
 ---------12--------12-10\7-------------7------5-7-5------|
 ----------------------------------------------------8----|
 -10--10------10------------------8--8------8-------------|

* * * * * *
[1]  
 
 ------------------------------------------------------------------|
 ------------------------------------------------------------------|
 -141414141010101012121212--------141414141010101012121212---------|
 -------------------------14141414------------------------14141414-|
 ------------------------------------------------------------------|
 ------------------------------------------------------------------|

HARMONY
 
 -------------------------------------------------------------------|
 -------------------------------------------------------------------|
 -171717171414141415151515--------171717171414141415151515----------|
 -------------------------17171717------------------------17171717--|
 -------------------------------------------------------------------|
 -------------------------------------------------------------------|

1 CONT
 
 -------------------------------------------------------------------|
 -------------------------------------------------------------------|
 -10101010------------------------10101010--------------------------|
 ---------121212121414141410101010---------121212121414141410101010-|
 -------------------------------------------------------------------|
 -------------------------------------------------------------------|

HARM CONT.
 
 ------------------------------------------------------------------|
 ------------------------------------------------------------------|
 -14141414------------------------14141414-------------------------|
 ---------151515151717171714141414--------151515151717171714141414-|
 ------------------------------------------------------------------|
 ------------------------------------------------------------------|

RYTHM
 
 ---------------------------------------------------------------------|
 ---------------------------------------------------------------------|
 ---------------------------------------------------------------------|
 ---------------------------------------------------------------------|
 -----7---8---7-5-----7---8---7-5-----7---8---7-5-------8----10---8-7-|
 -0-0---0---0-----0-0---0---0-----8-8---8---8-----10-10---10----10----|

* * * * * * * * * * * * * * * *
[1]  
 
 ------------------------------------------------------------------|
 ------------------------------------------------------------------|
 -141414141010101012121212--------141414141010101012121212---------|
 -------------------------14141414------------------------14141414-|
 ------------------------------------------------------------------|
 ------------------------------------------------------------------|

HARMONY
 
 -------------------------------------------------------------------|
 -------------------------------------------------------------------|
 -171717171414141415151515--------171717171414141415151515----------|
 -------------------------17171717------------------------17171717--|
 -------------------------------------------------------------------|
 -------------------------------------------------------------------|

1 CONT
 
 -------------------------------------------------------------------|
 -------------------------------------------------------------------|
 -10101010------------------------10101010--------------------------|
 ---------121212121414141410101010---------121212121414141410101010-|
 -------------------------------------------------------------------|
 -------------------------------------------------------------------|

HARM CONT.
 
 -------------------------------------|
 -------------------------------------|
 -14141414----------------------------|
 ---------151515151717171714141414----|
 -------------------------------------|
 -------------------------------------|

RYTHM
 
 ------------------------------------------------------|
 ------------------------------------------------------|
 ------------------------------------------------------|
 ------------------------------------------------------|
 -----7---8---7-5-----7---8---7-5-----7---8---7-5-10---|
 -0-0---0---0-----0-0---0---0-----8-8---8---8-----10---|

* * * * * * * * * * * * |
1:06
[B]  
 
 ---------------------------------------------------|
 ---------------------------------------------------|
 ---------------------------------------------------|
 -0----------------12---------------12--------------|
 -0-----------------8---------------10--------------|
 -0-----------------8---------------10--------------|
 ---------------------------------------------------|
 ---------------------------------------------------|
 ---------------------------------------------------|
 -0----------------12---------------12--------------|
 -0-----------------8---------------10--------------|
 -0-----------------8---------------10--------------|

1:17
L
 
 ----------------------------------------------------------|
 ----------------------------------------------------------|
 ------------14------------------------10--------------12--|
 -14---14-15-----15--14----------10-12-----------12-14-----|
 -12---------------------15--8--------------10-------------|
 -12-------------------------8--------------10-------------|

* *
R
 
 -----------------------------------------------------------|
 -------------------------------------11----------------13--|
 -------------10-----------------8-10-------------10-12-----|
 -14----10-12----12--10-------------------------------------|
 -12---------------------12--8---------------10-------------|
 -12-------------------------8---------------10-------------|

* * * *
L
 
 ----------------------------------------------------------|
 ----------------------------------------------------------|
 ------------14------------------------10--------------12--|
 ------14-15-----15--14----------10-12-----------12-14-----|
 --0---------------------15--8--------------10-------------|
 --0-------------------------8--------------10-------------|

* *
R
 
 -----------------------------------------------------------|
 -------------------------------------11----------------13--|
 -------------10-----------------8-10-------------10-12-----|
 -------10-12----12--10-------------------------------------|
 --0---------------------12--8---------------10-------------|
 --0-------------------------8---------------10-------------|

* * * *
[B] [B]  
 
 -----------------------------|
 ------------------------9----|
 ------------------------9----|
 ------------------------9----|
 -0--00-0-----0--00-0---------|
 -0--00-0-----0--00-0---------|

* ** * * ** *
1:30
[B]  
 
 ---------------------------------------------------------------------------|
 ---------------------------------------------------------------------------|
 ----------14----12-14-----------14------------------9----7----------7---5-4|
 -------------12--------------------12-15-14-----------10---9----------5----|
 0--00-0----------------0--00-0---------------77777------------55555--------|
 0--00-0----------------0--00-0---------------77777------------55555--------|

* ** * ** **** ****
 
 ---------------------------------------------------------------------------|
 ---------------------------------------------------------------------------|
 ----------14----12-14-----------14------------------9----7----------7---5-4|
 -------------12--------------------12-15-14-----------10---9----------5----|
 0--00-0----------------0--00-0---------------77777------------55555--------|
 0--00-0----------------0--00-0---------------77777------------55555--------|

* ** * ** **** ****
L
 
 ----------------------------------------------------------------------------|
 ------------------------------------------------------------------------PH--|
 ---------------------------------------------------9/12~-7~---------7---5-PH|
 ---------15----14-15------------15----12-10---------------------------5---5-|
 0--00-0-----12---------0--00-0-----12-------------------------55555---------|
 0--00-0----------------0--00-0---------------77777------------55555---------|

* ** * * ** * **** ****
R
 
 ----------------------------------------------------------------------------|
 ------------------------------------------------------------------------PH--|
 ---------14----12-14-----------14------------------9----7-----------7---5-PH|
 ------------12--------------------12-15-14-----------10---9-----------5---5-|
 0--00-0---------------0--00-0---------------77777------------55555----------|
 0--00-0---------------0--00-0---------------77777------------55555----------|

* ** * ** **** ****
L
 
 ----------------------------------------------------------------------------|
 ------------------------------------------------------------------------PH--|
 ---------------------------------------------------9/12~-7~---------7---5-PH|
 ---------15----14-15------------15----12-10---------------------------5---5-|
 0--00-0-----12---------0--00-0-----12-------------------------55555---------|
 0--00-0----------------0--00-0---------------77777------------55555---------|

* ** * * ** * **** ****
R
 
 ----------------------------------------------------------------------------|
 -----------------------------------------------------------------------PH---|
 ---------14----12-14-----------14------------------9----7-----------7---5-PH|
 ------------12--------------------12-15-14-----------10---9-----------5---5-|
 0--00-0---------------0--00-0---------------77777------------55555----------|
 0--00-0---------------0--00-0---------------77777------------55555----------|

* ** * ** **** ****
1:55
L
 
 -------------------------------------------------------------|
 -------------------------------------------------------------|
 ------10--------10--------10---------------------------------|
 -------X---------X---------X---------------------------------|
 -00000-8\--00000-8\--00000-8\---8888101010101212121210101010-|
 -00000-----00000-----00000-----------------------------------|

***** ***** *****
R
 
 ----------------------------------------------------|
 ----------------------------------------------------|
 -------7---------7---------7------------------------|
 -------X---------X---------X------------------------|
 -00000-5\--00000-5\--00000-5\---5555777788887777----|
 -00000-----00000-----00000--------------------------|

***** ***** *****
L
 
 ------------------------------------|
 ------------------------------------|
 ------10--------10--------10--------|
 -------X---------X---------X--------|
 -00000-8\--00000-8\--00000-8\--8-PS-|
 -00000-----00000-----00000-----8---\|

***** ***** ***** |
 
 ------------------------------------|
 ------------------------------------|
 -------7---------7---------7--------|
 -------X---------X---------X------P-|
 -00000-5\--00000-5\--00000-5\--8--S-|
 -00000-----00000-----00000-----8---\|

***** ***** ***** |
2:06
[B]  
 
 ---------------------------------------------------|
 ---------------------------------------------------|
 ---------------------------------------------------|
 -0----------------12---------------12--------------|
 -0-----------------8---------------10--------------|
 -0-----------------8---------------10--------------|
 ---------------------------------------------------|
 ---------------------------------------------------|
 ---------------------------------------------------|
 -0----------------12---------------12--------------|
 -0-----------------8---------------10--------------|
 -0-----------------8---------------10--------------|

2:16
MELODY 1
 
 ----------------------------------------------------------|
 ----------------------------------------------------------|
 ------------14------------------------10--------------12--|
 ------14-15-----15--14----------10-12-----------12-14-----|
 --0---------------------15--8--------------10-------------|
 --0-------------------------8--------------10-------------|

* * * *
[2]  
 
 -----------------------------------------------------------|
 -------------------------------------11----------------13--|
 -------------10-----------------8-10-------------10-12-----|
 -------10-12----12--10-------------------------------------|
 --0---------------------12----8---------------10-----------|
 --0---------------------------8---------------10-----------|

* * * *
RYTHM 3
 
 -----------------------------------------------------------|
 -----------------------------------------------------------|
 -----------------------------------------------------------|
 0-----------------------------12--------------12-----------|
 0-0-0-0-0-0-0-0-0-0-0-0-0-0-0-8---------------10-----------|
 0-0-0-0-0-0-0-0-0-0-0-0-0-0-0-8---------------10-----------|

* * * * * * * * * * * * * *
MELODY 1
 
 ----------------------------------------------------------|
 ----------------------------------------------------------|
 ------------14------------------------10--------------12--|
 ------14-15-----15--14----------10-12-----------12-14-----|
 --0---------------------15--8--------------10-------------|
 --0-------------------------8--------------10-------------|

* * * *
[2]  
 
 -----------------------------------------------------------|
 -------------------------------------11----------------13--|
 -------------10-----------------8-10-------------10-12-----|
 -------10-12----12--10-------------------------------------|
 --0---------------------12----8---------------10-----------|
 --0---------------------------8---------------10-----------|

* * * *
RYTHM 3
 
 -----------------------------------------------------------|
 -----------------------------------------------------------|
 -----------------------------------------------------------|
 0-----------------------------12--------------12-----------|
 0-0-0-0-0-0-0-0-0-0-0-0-0-0-0-8---------------10-----------|
 0-0-0-0-0-0-0-0-0-0-0-0-0-0-0-8---------------10-----------|

* * * * * * * * * * * * * *
 
 ----------------------------------------|
 ----------------------------------------|
 ----------------------------------------|
 -0--------------------------------------|
 -0--------------------------------------|
 -0--------------------------------------|

2:30
 
 -----------------------------------------------------------------|
 -----------------------------------------------------------------|
 --------9-----9---------9-----9----------5---3-2-----------------|
 ----10---10---------10---10----------3---------------3---5---3-2-|
 --12--12---12-----12--12---12------3---3---3-------3---3---3-----|
 0---------------8----------------3---------------3---------------|
 -----------------------------------------------------------------|
 -----------------------------------------------------------------|
 --------9-----9---------9-----9----------5---3-2-----------------|
 ----10---10---------10---10----------3---------------3---5---3-2-|
 --12--12---12-----12--12---12------3---3---3-------3---3---3-----|
 0---------------8----------------3---------------3---------------|
 -----------------------------------------------------------------|
 -----------------------------------------------------------------|
 --------9-----9---------9-----9----------5---3-2-----------------|
 ----10---10---------10---10----------3---------------3---5---3-2-|
 --12--12---12-----12--12---12------3---3---3-------3---3---3-----|
 0---------------8----------------3---------------3---------------|
 ------------------------------------------------------------|
 ------------------------------------------------------------|
 --------9-----9---------9-----9----------5---3-2------------|
 ----10---10---------10---10----------3---------------3---5--|
 --12--12---12-----12--12---12------3---3---3-------3---3----|
 0---------------8----------------3---------------3----------|

2:54
 
 --------------------------------------------------------------------|
 --------------------------------------------------------------------|
 -----------9~----------------9~---------------5~-3-2----------------|
 ------10------10--------10------10--------5--------------3---5~-3-2-|
 -0-0-----0-------12-8-8----8-------12-3-3---3--------3-3---3--------|
 -0-0----------------8-8---------------3-3------------3-3------------|

* * * * * * * * * * * *
 
 --------------------------------------------------------------------|
 --------------------------------------------------------------------|
 -----------9~----------------9~---------------5~-3-2----------------|
 ------10------10--------10------10--------5--------------3---5~-3-2-|
 -0-0-----0-------12-8-8----8-------12-3-3---3--------3-3---3--------|
 -0-0----------------8-8---------------3-3------------3-3------------|

* * * * * * * * * * * *
3:06
L
 
 ---------------------------------------------------------------------|
 ---------------------------------------------------------------------|
 -----------9-10-9~-----------9-10-9~----------PH-3-2-----------------|
 ------10----------------8-10--------------5---3~---------3---PH-3-2--|
 -0-0-----0----------8-8---------------3-3---3--------3-3---3-3~------|
 -0-0----------------8-8---------------3-3------------3-3-------------|

* * * * * * * * *
R
 
 ---------------------------------------------------------------------|
 ---------------------------------------------------------------------|
 -----------12-14-12~----------14--12~--------PH-3-2------------------|
 -----14---------------12-14-15--15-------5----3~---------3---PH-3-2--|
 -0-0----0-----------8-----------------3-3---3--------3-3---3-3~------|
 -0-0----------------8-----------------3-3------------3-3-------------|

* * * * * * * * *
L
 
 ---------------------------------------------------------------------|
 ---------------------------------------------------------------------|
 -----------9-10-9~-----------9-10-9~----------PH-3-2-----------------|
 ------10----------------8-10--------------5---3~---------3---PH-3-2--|
 -0-0-----0----------8-8---------------3-3---3--------3-3---3-3~------|
 -0-0----------------8-8---------------3-3------------3-3-------------|

* * * * * * * * *
R
 
 ---------------------------------------------------------------------|
 ---------------------------------------------------------------------|
 -----------12-14-12~----------14--12~--------PH-3-2------------------|
 -----14---------------12-14-15--15--------5---3~---------3---PH-3-2--|
 -0-0----0-----------8-----------------3-3---3--------3-3---3-3~------|
 -0-0----------------8-----------------3-3------------3-3-------------|

* * * * * * * * *
3:18
 
 ---------------------------------------------|
 ---------------------------------------------|
 ---------------------------------------------|
 ---------------------------10---------12-----|
 -000-0-0---000-0-0---000-0--8---000-0-10-----|
 -000-0-0---000-0-0---000-0--8---000-0-10-\---|

*** * * *** * * *** * *** *
 
 ---------------------------------------------|
 ---------------------------------------------|
 ---------------------------------------------|
 ---------------------------10---------12-----|
 -000-0-0---000-0-0---000-0--8---000-0-10-----|
 -000-0-0---000-0-0---000-0--8---000-0-10-\---|

*** * * *** * * *** * *** *
3:30
L
 
 ------------------------------------------------------------------|
 ------------------------------------------------------------------|
 -------7---------------7---------------7-----------^---^---^---^--|
 -------X---------------X---------------X----------750-750-320-320-|
 -000-0-5-0-0-000-000-0-5-0-0-000-000-0-5-0-0-000------------------|
 -000-0---0-0-000-000-0---0-0-000-000-0---0-0-000------------------|

*** * * * *** *** * * * *** *** * * * ***
R
 
 ------------------------------------------------------------------|
 ------------------------------------------------------------------|
 -------7---------------7---------------7--------------------------|
 -------X---------------X---------------X-----------^---^---^---^--|
 -000-0-5-0-0-000-000-0-5-0-0-000-000-0-5-0-0-000--870-870-530-530-|
 -000-0---0-0-000-000-0---0-0-000-000-0---0-0-000------------------|

*** * * * *** *** * * * *** *** * * * ***
L
 
 ------------------------------------------------------------------|
 ------------------------------------------------------------------|
 -------7---------------7---------------7-----------^---^---^---^--|
 -------X---------------X---------------X----------750-750-320-320-|
 -000-0-5-0-0-000-000-0-5-0-0-000-000-0-5-0-0-000------------------|
 -000-0---0-0-000-000-0---0-0-000-000-0---0-0-000------------------|

*** * * * *** *** * * * *** *** * * * ***
R
 
 ------------------------------------------------------------------|
 ------------------------------------------------------------------|
 -------7---------------7---------------7--------------------------|
 -------X---------------X---------------X-----------^---^---^---^--|
 -000-0-5-0-0-000-000-0-5-0-0-000-000-0-5-0-0-000--870-870-530-530-|
 -000-0---0-0-000-000-0---0-0-000-000-0---0-0-000------------------|

*** * * * *** *** * * * *** *** * * * ***
3:42
L
 
 ------------------------------------------------------------------|
 ------------------------------------------------------------------|
 ------10--------------10--------------10-----------^---^---^---^--|
 -------X---------------X---------------X----------750-750-320-320-|
 -000-0-8-0-0-000-000-0-8-0-0-000-000-0-8-0-0-000------------------|
 -000-0---0-0-000-000-0---0-0-000-000-0---0-0-000------------------|

*** * * * *** *** * * * *** *** * * * ***
R
 
 ------------------------------------------------------------------|
 ------------------------------------------------------------------|
 -------7---------------7---------------7--------------------------|
 -------X---------------X---------------X-----------^---^---^---^--|
 -000-0-5-0-0-000-000-0-5-0-0-000-000-0-5-0-0-000--870-870-530-530-|
 -000-0---0-0-000-000-0---0-0-000-000-0---0-0-000------------------|

*** * * * *** *** * * * *** *** * * * ***
L
 
 -------------------------------------------------------------------------|
 -------------------------------------------------------------------------|
 ------10--------------10--------------10-----------^---^---^---^--10-----|
 -------X---------------X---------------X----------750-750-320-320-X------|
 -000-0-8-0-0-000-000-0-8-0-0-000-000-0-8-0-0-000------------------8\-000-|
 -000-0---0-0-000-000-0---0-0-000-000-0---0-0-000---------------------000-|

*** * * * *** *** * * * *** *** * * * ***
R
 
 -------------------------------------------------------------------------|
 -------------------------------------------------------------------------|
 -------7---------------7---------------7--------------------------7------|
 -------X---------------X---------------X-----------^---^---^---^--X------|
 -000-0-5-0-0-000-000-0-5-0-0-000-000-0-5-0-0-000--870-870-530-530-5\-000-|
 -000-0---0-0-000-000-0---0-0-000-000-0---0-0-000---------------------000-|

*** * * * *** *** * * * *** *** * * * ***

Important: The song above is NOT stored on the Chordie server. The original song is hosted at www.guitaretab.com. Chordie works as a search engine and provides on-the-fly formatting. Chordie does not index songs against artists'/composers' will. To remove this song please click here.

Text color:
Chord color:
Chord grids: 
Font size:    
Page size: 

B
Rate #1 of 2 versions

Jango Player

Login - add to songbook

SHARE PAGE  



You need to log in to post comments