Guitar Tabs, Chords and Lyrics
Server problems seems to be fixed. Chordie has been experiencing problems with songs disappearing. These issues now seems to be fixed, but still verifying the fix. If you find anything strange, please email admin@chordie.com.


Deadweight  Parkway Drive

[A#-F-A#-D#-G-C]  
TABBED BY andherembrace
 
 -------------------------------------------------|
 -------------------------------------------------|
 -------------------------------------------------|
 ---^-----^-----^-----^-----^---------------------|
 -12-5--12-5--12-5--12-5--12-5----^-----^-----^---|
 -------------------------------12-5--12-5--12-5--|

T T T T T T T T
 
 ---------------------------------------------------|
 ---------------------------------------------------|
 ---------------------------------------------------|
 ---^-----^-----^-----^-----^-----------------------|
 -15-8--15-8--15-8--15-8--15-8----^-----^-----^-----|
 -------------------------------15-8--15-8--15-8----|

T T T T T T T T
 
 -------------------------------------------------|
 -------------------------------------------------|
 -------------------------------------------------|
 ---^-----^-----^-----^-----^---------------------|
 -12-5--12-5--12-5--12-5--12-5----^-----^-----^---|
 -------------------------------12-5--12-5--12-5--|

T T T T T T T T
 
 ---------------------------------------------------|
 ---------------------------------------------------|
 ---------------------------------------------------|
 ---^-----^-----^-----^-----^-----------------------|
 -15-8--15-8--15-8--15-8--15-8----^-----^-----^-----|
 -------------------------------15-8--15-8--15-8----|

T T T T T T T T
[1]  
 
 -------------------------------------------------|
 -------------------------------------------------|
 -------------------------------------------------|
 ---^-----^-----^-----^-----^---------------------|
 -12-5--12-5--12-5--12-5--12-5----^-----^-----^---|
 -------------------------------12-5--12-5--12-5--|

T T T T T T T T
[2]  
 
 -------------------------------------------------|
 -------------------------------------------------|
 -------------------------------------------------|
 -0-----------------------------------------------|
 -0-----------------------------------------------|
 -0-----------------------------------------------|

[1]  
 
 ---------------------------------------------------|
 ---------------------------------------------------|
 ---------------------------------------------------|
 ---^-----^-----^-----^-----^-----------------------|
 -15-8--15-8--15-8--15-8--15-8----^-----^-----^-----|
 -------------------------------15-8--15-8--15-8----|

T T T T T T T T
[2]  
 
 ---------------------------------------------------|
 ---------------------------------------------------|
 ---------------------------------------------------|
 (0)------------------------------------------------|
 (0)------------------------------------------------|
 (0)------------------------------------------------|

[1]  
 
 -------------------------------------------------|
 -------------------------------------------------|
 -------------------------------------------------|
 ---^-----^-----^-----^-----^---------------------|
 -12-5--12-5--12-5--12-5--12-5----^-----^-----^---|
 -------------------------------12-5--12-5--12-5--|

T T T T T T T T
[2]  
 
 ---------------------------------------------------|
 ---------------------------------------------------|
 ---------------------------------------------------|
 (0)------------------------------------------------|
 (0)------------------------------------------------|
 (0)------------------------------------------------|

[1]  
 
 ----------------------------------|
 ----------------------------------|
 ----------------------------------|
 ---^-----^-----^-----^-----^------|
 -15-8--15-8--15-8--15-8--15-8-----|
 ----------------------------------|

T T T T T
[2]  
 
 ---------------------------------|
 ---------------------------------|
 ---------------------------------|
 (0)-----------------------0------|
 (0)-----------------------0------|
 (0)-----------------------0------|

|
[1]  
 
 -------------------------------------------------|
 -------------------------------------------------|
 -------------------------------------------------|
 ---^-----^-----^-----^-----^---------------------|
 -12-5--12-5--12-5--12-5--12-5----^-----^-----^---|
 -------------------------------12-5--12-5--12-5--|

T T T T T T T T
[2]  
 
 -------------------------------------------------|
 -------------------------------------------------|
 -------------------------------------------------|
 -0-----------------------------------------------|
 -0-----------------------------------------------|
 -0-----------------------------------------------|

[1]  
 
 ---------------------------------------------------|
 ---------------------------------------------------|
 ---------------------------------------------------|
 ---^-----^-----^-----^-----^-----------------------|
 -15-8--15-8--15-8--15-8--15-8----^-----^-----^-----|
 -------------------------------15-8--15-8--15-8----|

T T T T T T T T
[2]  
 
 -------------------------------------------------|
 -------------------------------------------------|
 -------------------------------------------------|
 -8-----------------------------------------------|
 -8-----------------------------------------------|
 -8-----------------------------------------------|

[1]  
 
 -------------------------------------------------|
 -------------------------------------------------|
 -------------------------------------------------|
 ---^-----^-----^-----^-----^---------------------|
 -12-5--12-5--12-5--12-5--12-5----^-----^-----^---|
 -------------------------------12-5--12-5--12-5--|

T T T T T T T T
[2]  
 
 -------------------------------------------------|
 -------------------------------------------------|
 -------------------------------------------------|
 -10----------------------------------------------|
 -10----------------------------------------------|
 -10----------------------------------------------|

[1]  
 
 ---------------------------------------------------|
 ---------------------------------------------------|
 ---------------------------------------------------|
 ---^-----^-----^-----^-----^-----------------------|
 -15-8--15-8--15-8--15-8--15-8----^-----^-----^-----|
 -------------------------------15-8--15-8--15-8----|

T T T T T T T T
[2]  
 
 -------------------------------------------------|
 -------------------------------------------------|
 -------------------------------------------------|
 -3-----------------------------------------------|
 -3-----------------------------------------------|
 -3-----------------------------------------------|

[1]  
 
 -------------------------------------------------|
 -------------------------------------------------|
 -------------------------------------------------|
 ---^-----^-----^-----^-----^---------------------|
 -12-5--12-5--12-5--12-5--12-5----^-----^-----^---|
 -------------------------------12-5--12-5--12-5--|

T T T T T T T T
[2]  
 
 -------------------------------------------------|
 -------------------------------------------------|
 -------------------------------------------------|
 -0-----------------------------------------------|
 -0-----------------------------------------------|
 -0-----------------------------------------------|

[3]  
 
 -------------------------------------------------|
 -------------------------------------------------|
 --------10-9-10----------------------------------|
 -P-------X-X--X----------------------------------|
 --S------8-7--8----------------------------------|
 ---\---------------------------------------------|

[1]  
 
 ---------------------------------------------------|
 ---------------------------------------------------|
 ---------------------------------------------------|
 ---^-----^-----^-----^-----^-----------------------|
 -15-8--15-8--15-8--15-8--15-8----^-----^-----^-----|
 -------------------------------15-8--15-8--15-8----|

T T T T T T T T
[2]  
 
 -------------------------------------------------|
 -------------------------------------------------|
 -------------------------------------------------|
 -8-8-8-8-----------------------------------------|
 -8-8-8-8-----------------------------------------|
 -8-8-8-8-----------------------------------------|

[3]  
 
 -------------------------------------------------|
 -------------------------------------------------|
 -10-------10-9-10--------------------------------|
 --X-------X-X--X---------------------------------|
 --8-------8-7--8---------------------------------|
 -------------------------------------------------|

[1]  
 
 -------------------------------------------------|
 -------------------------------------------------|
 -------------------------------------------------|
 ---^-----^-----^-----^-----^---------------------|
 -12-5--12-5--12-5--12-5--12-5----^-----^-----^---|
 -------------------------------12-5--12-5--12-5--|

T T T T T T T T
[2]  
 
 -------------------------------------------------|
 -------------------------------------------------|
 -------------------------------------------------|
 -10-10-10-10-------------------------------------|
 -10-10-10-10-------------------------------------|
 -10-10-10-10-------------------------------------|

[3]  
 
 -------------------------------------------------|
 -------------------------------------------------|
 ----10-10--12-10--12-----------------------------|
 -----X--X---X--X---X-----------------------------|
 -----8--8--10--8--10-----------------------------|
 -------------------------------------------------|

[1]  
 
 ---------------------------------------------------|
 ---------------------------------------------------|
 ---------------------------------------------------|
 ---^-----^-----^-----^-----^-----------------------|
 -15-8--15-8--15-8--15-8--15-8----^-----^-----^-----|
 -------------------------------15-8--15-8--15-8----|

T T T T T T T T
[2]  
 
 -------------------------------------------------|
 -------------------------------------------------|
 -------------------------------------------------|
 -3-----------------------------------------------|
 -3-----------------------------------------------|
 -3-----------------------------------------------|

[3]  
 
 -------------------------------------------------|
 -------------------------------------------------|
 -----10--10--9--5--------------------------------|
 ------X---X--X--X--------------------------------|
 ------8---8--7--3--------------------------------|
 -------------------------------------------------|

[B]  
 
 --------------------------------|
 --------------------------------|
 --------------------------------|
 --------------------------------|
 -5------------7-----8-7----7----|
 ---8--8--8--8---10------10------|

0:35
R
 
 --------------------------------------------|
 --------------------------------------------|
 ---------------------------__---------------|
 --------------------------/ \--------------|
 -12--8888-10--7777-8--55-7-10-7-------------|
 --------------------------------00000-0-000-|

**** **** ** ***** * ***
L
 
 ----------------------------------------|
 ----------------------------------------|
 ----------------------------------------|
 ----------------------------------------|
 -------------------------5--------------|
 ---------------------------8--8--8--8---|

R
 
 ----------------------------------------|
 ----------------------------------------|
 ----------------------------------------|
 ----------------------------------------|
 12--8888-10--7777-8--55--5--------------|
 ---------------------------8--8--8--8---|

**** **** **
L
 
 ---------------------------------------------------------------------|
 ---------------------------------------------------------------------|
 --------------------------__-----------------------------------------|
 -------------------------/ \----------------------------------------|
 12--8888-10--7777-8--55-7-10-7-------------8-----------10---12-10--10|
 -------------------------------00000-0-000--12-12-12-12--14------14--|

**** **** ** ***** * ***
R
 
 --------------------------------------------------------------------|
 --------------------------------------------------------------------|
 --------------------------__----------------------------------------|
 -------------------------/ \---------------------------------------|
 12--8888-10--7777-8--55-7-10-7--------------5-----------7----8-7---7|
 -------------------------------00000-0-000---8--8--8--8--10-----10--|

**** **** ** ***** * ***
0:46
[B]  
 
 --------------------------------------------|
 --------------------------------------------|
 ---------------------------__---------------|
 --------------------------/ \--------------|
 -12--8888-10--7777-8--55-7-10-7-------------|
 --------------------------------00000-0-000-|

**** **** ** ***** * ***
 
 ----------------------------------------|
 ----------------------------------------|
 ----------------------------------------|
 ----------------------------------------|
 12--8888-10--7777-8--55--5--------------|
 ---------------------------8--8--8--8---|

**** **** **
 
 --------------------------------------------------------------------|
 --------------------------------------------------------------------|
 --------------------------__----------------------------------------|
 -------------------------/ \---------------------------------------|
 12--8888-10--7777-8--55-7-10-7--------------5-----------7----8-7---7|
 -------------------------------00000-0-000---8--8--8--8--10-----10--|

**** **** ** ***** * ***
 
 --------------------------------------------|
 --------------------------------------------|
 ---------------------------__---------------|
 --------------------------/ \--------------|
 -12--8888-10--7777-8--55-7-10-7-------------|
 --------------------------------00000-0-000-|

**** **** ** ***** * ***
 
 ----------------------------------------|
 ----------------------------------------|
 ----------------------------------------|
 ----------------------------------------|
 12--8888-10--7777-8--55--5--------------|
 ---------------------------8--8--8--8---|

**** **** **
L
 
 ---------------------------------------------------------------------|
 ---------------------------------------------------------------------|
 --------------------------__-----------------------------------------|
 -------------------------/ \----------------------------------------|
 12--8888-10--7777-8--55-7-10-7-------------8-----------10---12-10--10|
 -------------------------------00000-0-000--12-12-12-12--14------14--|

**** **** ** ***** * ***
R
 
 --------------------------------------------------------------------|
 --------------------------------------------------------------------|
 --------------------------__----------------------------------------|
 -------------------------/ \---------------------------------------|
 12--8888-10--7777-8--55-7-10-7--------------5-----------7----8-7---7|
 -------------------------------00000-0-000---8--8--8--8--10-----10--|

**** **** ** ***** * ***
1;05
 
 ---------------------------------------------------------------------|
 ---------------------------------------------------------------------|
 -------5------------------7-------------------------------------/\---|
 -------X------------------X--------------7--8--7-----7--10--7--5757--|
 -------3------------------5------------------------------------------|
 -0--0------0--0--0---0--0----0--0--0--8-----------10-----------------|

* * * *
 
 ---------------------------------------------------------------------|
 ---------------------------------------------------------------------|
 -------5------------------7-------------------------------------/\---|
 -------X------------------X--------------7--8--7-----7--10--7--5757--|
 -------3------------------5------------------------------------------|
 -0--0------0--0--0---0--0----0--0--0--8-----------10-----------------|

* * * *
 
 ---------------------------------------------------------------------|
 ---------------------------------------------------------------------|
 -------5------------------7-------------------------------------/\---|
 -------X------------------X--------------7--8--7-----7--10--7--5757--|
 -------3------------------5------------------------------------------|
 -0--0------0--0--0---0--0----0--0--0--8-----------10-----------------|

* * * *
 
 ---------------------------------------------------------------------|
 ---------------------------------------------------------------------|
 -------5------------------7-------------------------------------/\---|
 -------X------------------X--------------7--8--7-----7--10--7--5757--|
 -------3------------------5------------------------------------------|
 -0--0------0--0--0---0--0----0--0--0--8-----------10-----------------|

* * * *
 
 --------------------------------------------|
 --------------------------------------------|
 ---------------------------__---------------|
 --------------------------/ \--------------|
 -12--8888-10--7777-8--55-7-10-7-------------|
 --------------------------------00000-0-000-|

**** **** ** ***** * ***
 
 ----------------------------------------|
 ----------------------------------------|
 ----------------------------------------|
 ----------------------------------------|
 12--8888-10--7777-8--55--5--------------|
 ---------------------------8--8--8--8---|

**** **** **
L
 
 ---------------------------------------------------------------------|
 ---------------------------------------------------------------------|
 --------------------------__-----------------------------------------|
 -------------------------/ \----------------------------------------|
 12--8888-10--7777-8--55-7-10-7-------------8-----------10---12-10--10|
 -------------------------------00000-0-000--12-12-12-12--14------14--|

**** **** ** ***** * ***
R
 
 --------------------------------------------------------------------|
 --------------------------------------------------------------------|
 --------------------------__----------------------------------------|
 -------------------------/ \---------------------------------------|
 12--8888-10--7777-8--55-7-10-7--------------5-----------7----8-7---7|
 -------------------------------00000-0-000---8--8--8--8--10-----10--|

**** **** ** ***** * ***
1;37
[B]  
 
 -------------------------------------------------------|
 -------------------------------------------------------|
 -------------------------------------------------------|
 -0-0--0--0--0-0-0--0--0--0-0-0--0--0--0----------------|
 -0-0--0--0--0-0-0--0--0--0-0-0--0--0--0--5-------------|
 -0-0--0--0--0-0-0--0--0--0-0-0--0--0--0----8--8--8--8--|

* * * * * * * * * * * * * * *
 
 -------------------------------------------------------|
 -------------------------------------------------------|
 -------------------------------------------------------|
 -0-0--0--0--0-0-0--0--0--0-0-0--0--0--0----------------|
 -0-0--0--0--0-0-0--0--0--0-0-0--0--0--0--7----8-7----7-|
 -0-0--0--0--0-0-0--0--0--0-0-0--0--0--0----10-----10---|

* * * * * * * * * * * * * * *
 
 -------------------------------------------------------|
 -------------------------------------------------------|
 -------------------------------------------------------|
 -0-------------------------0-------------------------0-|
 -0-------------------------0-------------------------0-|
 -0-------------------------0-------------------------0-|

*|
1:57
 
 -----------------------------------------------------------|
 -----------------------------------------------------------|
 -----------------------------------------------------------|
 -7---0-0-0--8---1-1-1--1-1-1--7---0-0-0--8---1-1-1--1-1-1--|
 -5\--0-0-0--6\--0-0-0--0-0-0--5\--0-0-0--6\--0-0-0--0-0-0--|
 -----0-0-0------1-1-1--1-1-1------0-0-0------1-1-1--1-1-1--|

* * * * * * * * * * * * * * * * * *
 
 -----------------------------------------------------------|
 -----------------------------------------------------------|
 -----------------------------------------------------------|
 -7---0-0-0--8---1-1-1--1-1-1--7---0-0-0--8---1-1-1--1-1-1--|
 -5\--0-0-0--6\--0-0-0--0-0-0--5\--0-0-0--6\--0-0-0--0-0-0--|
 -----0-0-0------1-1-1--1-1-1------0-0-0------1-1-1--1-1-1--|

* * * * * * * * * * * * * * * * * *
 
 ----------------------------|
 ----------------------------|
 ----------------------------|
 ----------------------------|
 -0--0-0-0--0----000-0-------|
 -3--3-3-3--3----333-3-3~~---|

* * * * * *** *
 
 -----------------------------------------------------------|
 -----------------------------------------------------------|
 -----------------------------------------------------------|
 -7---0-0-0--8---1-1-1--1-1-1--7---0-0-0--8---1-1-1--1-1-1--|
 -5\--0-0-0--6\--0-0-0--0-0-0--5\--0-0-0--6\--0-0-0--0-0-0--|
 -----0-0-0------1-1-1--1-1-1------0-0-0------1-1-1--1-1-1--|

* * * * * * * * * * * * * * * * * *
R, L PLAYS 8,10 PWR CHRDS
 
 -----------------------------------------------------------------------|
 -----------------------------------------------------------------------|
 -------------------------------------------------------------------/\--|
 --------------------------0-0--0--0--0-0--0--0----7-8-7----7-10-7-5757-|
 -0--0-0-0--0----000-0-----0-0--0--0--0-0--0--0-------------------------|
 -3--3-3-3--3----333-3-3~~-0-0--0--0--0-0--0--0--8-------10-------------|

* * * * * *** * * * * * * * * *
L PLAYS 8X10 THOUGHOUT
|
 
 ---------------------------------------------------------------------|
 ---------------------------------------------------------------------|
 -------5------------------7-------------------------------------/\---|
 -------X------------------X--------------7--8--7-----7--10--7--5757--|
 -------3------------------5------------------------------------------|
 -0--0------0--0--0---0--0----0--0--0--8-----------10-----------------|

* * * *
 
 ---------------------------------------------------------------------|
 ---------------------------------------------------------------------|
 -------5------------------7-------------------------------------/\---|
 -------X------------------X--------------7--8--7-----7--10--7--5757--|
 -------3------------------5------------------------------------------|
 -0--0------0--0--0---0--0----0--0--0--8-----------10-----------------|

* * * *
 
 ---------------------------------------------------------------------|
 ---------------------------------------------------------------------|
 -------5------------------7-------------------------------------/\---|
 -------X------------------X--------------7--8--7-----7--10--7--5757--|
 -------3------------------5------------------------------------------|
 -0--0------0--0--0---0--0----0--0--0--8-----------10-----------------|

* * * *
 
 ------------------------------------------------------------------------|
 ------------------------------------------------------------------------|
 --------------------/\----------------------/\-----------------------/\-|
 ---7-8-7----7-10-7-5757----7-8-7----7-10-7-5757-----7-8-7----7-10-7-5757|
 ------------------------------------------------------------------------|
 -8-------10--------------8-------10--------------8--------10------------|

L
 
 --------------------------------------------------------------|
 --------------------------------------------------------------|
 --------------------------------------------------------------|
 ----7-8-7----7-10-7--5-7-----0--------------------------------|
 -----------------------------0--------------------------------|
 -8--------10-----------------0--------------------------------|
 --------------------------------------------------------------|
 --------------------------------------------------------------|
 --------------------------------------------------------------|
 --10-12-10---10-14-10-9-10---0--------------------------------|
 -----------------------------0--------------------------------|
 12---------14----------------0--------------------------------|
 --------------------------------------------------------------|
 --------------------------------------------------------------|
 --------------------------------------------------------------|
 --0-----------------------------------------------------------|
 --0-----------------------------------------------------------|
 --0-----------------------------------------------------------|

L
 
 -----------------------------------------------------------|
 -----------------------------------------------------------|
 -----------------------------------------------------------|
 -7---0-0-0--8---1-1-1--1-1-1--7---0-0-0--8---1-1-1--1-1-1--|
 -5\--0-0-0--6\--0-0-0--0-0-0--5\--0-0-0--6\--0-0-0--0-0-0--|
 -----0-0-0------1-1-1--1-1-1------0-0-0------1-1-1--1-1-1--|

* * * * * * * * * * * * * * * * * *
R
 
 -------------------------------------------------------------|
 -------------------------------------------------------------|
 -------------------------------------------------------------|
 -7--0-0-0----------------------------------------------------|
 -5\-0-0-0----------------------------------------------------|
 ----0-0-0----------------------------------------------------|

* *
[B]  
 
 ---------------------------------------------------------|
 ---------------------------------------------------------|
 ---------------------------------------------------------|
 -7---0-0-0--8---1-1-1--1-1-1--7---0-0-0--8---0-0-0--0-0--|
 -5\--0-0-0--6\--0-0-0--0-0-0--5\--0-0-0--6\--0-0-0--0-0--|
 -----0-0-0------1-1-1--1-1-1------0-0-0------0-0-0--0-0--|

* * * * * * * * * * * * * * * * *
 
 ---------------------------------------------------------|
 ---------------------------------------------------------|
 ---------------------------------------------------------|
 -7---0-0-0--8---0-0-0--0-0----7---0-0-0--8---0-0-0--0-0--|
 -5\--0-0-0--6\--0-0-0--0-0----5\--0-0-0--6\--0-0-0--0-0--|
 -----0-0-0------0-0-0--0-0--------0-0-0------0-0-0--0-0--|

* * * * * * * * * * * * * * * *
 
 ---------------------------------------------------------|
 ---------------------------------------------------------|
 ---------------------------------------------------------|
 -7---0-0-0--8---0-0-0--0-0----7---0-0-0--8---0-0-0--0-0--|
 -5\--0-0-0--6\--0-0-0--0-0----5\--0-0-0--6\--0-0-0--0-0--|
 -----0-0-0------0-0-0--0-0--------0-0-0------0-0-0--0-0--|

* * * * * * * * * * * * * * * *

Important: The song above is NOT stored on the Chordie server. The original song is hosted at www.guitaretab.com. Chordie works as a search engine and provides on-the-fly formatting. Chordie does not index songs against artists'/composers' will. To remove this song please click here.

Text color:
Chord color:
Chord grids: 
Font size:    
Page size: 

B
Rate #1 of 1 versions

Jango Player

Login - add to songbook

SHARE PAGE  




You need to log in to post comments