Guitar Tabs, Chords and Lyrics
Server problems seems to be fixed. Chordie has been experiencing problems with songs disappearing. These issues now seems to be fixed, but still verifying the fix. If you find anything strange, please email admin@chordie.com.


Alone   Parkway Drive

 
 ----------0------------------/ \---------------7-----------------------|
 -----6------6---6-------5---5-6-5---5------5-----8---8-----------5-----|
 -7-7---7------7-----5-5---5-------7----5-5---5-----5---------7-----7---|
 ---------------------------------------------------------7-7---7-----7-|
 -----------------------------------------------------------------------|
 -----------------------------------------------------------------------|

 


 _


 

 
 ----------0------------------/ \---------------7-----------------------|
 -----6------6---6-------5---5-6-5---5------5-----8---8-----------5-----|
 -7-7---7------7-----5-5---5-------7----5-5---5-----5---------7-----7---|
 ---------------------------------------------------------7-7---7-----7-|
 -----------------------------------------------------------------------|
 -----------------------------------------------------------------------|

 


 _


 

 
 ----------0------------------/ \---------------7-----------------------|
 -----6------6---6-------5---5-6-5---5------5-----8---8-----------5-----|
 -7-7---7------7-----5-5---5-------7----5-5---5-----5---------7-----7---|
 ---------------------------------------------------------7-7---7-----7-|
 -----------------------------------------------------------------------|
 -----------------------------------------------------------------------|

 


 


 _


 

 
 ----------0------------------/ \---------------7---------|
 -----6------6---6-------5---5-6-5---5------5-----8---8---|
 -7-7---7------7-----5-5---5-------7----5-5---5-----5-----|
 ---------------------------------------------------------|
 ---------------------------------------------------------|
 ---------------------------------------------------------|

 


 


 


 0:29


 


 

 
 --------------------------------------------------------------------|
 --------------------------------------------------------------------|
 ------------------------5~----------------------------9--------9----|
 -7--5-------------5--------8-7-8--7--5------------------10-------10-|
 ---------------------8----------------------------------------------|
 -------0---000-0------------------------0---000-00--8-------10------|

 


 *** * *** **


 


 

 
 ----------------------------------------------------------------------|
 ----------------------------------------------------------------------|
 ------------------------5~--------------------------------------------|
 -7--5-------------5--------8-7-8--7--5------------------7-------------|
 ---------------------8-------------------------------------------10---|
 -------0---000-0------------------------0---000-00-8888---8888-10--10-|

 


 *** * *** ** **** ****


 


 0:43


 


 

 
 ---------------------------------------------------------------------|
 ---------------------------------------------------------------------|
 -----------------------9--------9------------12--10--9-------9--5-7--|
 -------------------------10-------10----------X---X--X-------X--X-X--|
 --------------------------------------------/10---8--7-------7--3-5--|
 -7-0000-0-00-0-00-0-8-------10-------7-00-0------------00000---------|

 


 **** ** ** ** *****


 


 

 
 ---------------------------------------------------------------|
 ---------------------------------------------------------------|
 -------------------------14------------------------------------|
 --------------------------X------------------------------------|
 --------------------8---/12-\-7------0--0--0---0-0-0--0--0-----|
 -7-0000-0-00-0-00-0-8---------7-0000-0--0--0---0-0-0--0--0-----|

 


 **** ** ** **** * * * * * * * *


 


 0:56


 


 

 
 ---------------------------------------------------------------------|
 ---------------------------------------------------------------------|
 -----------------------9--------9------------12--10--9-------9--5-7--|
 -------------------------10-------10----------X---X--X-------X--X-X--|
 --------------------------------------------/10---8--7-------7--3-5--|
 -7-0000-0-00-0-00-0-8-------10-------7-0000------------00000---------|

 


 **** ** ** **** *****


 


 

 
 ---------------------------------------------------------------|
 ---------------------------------------------------------------|
 -------------------------14------------------------------------|
 --------------------------X------------------------------------|
 --------------------8---/12-\-7------0--0--0---0-0-0--0--0-----|
 -7-0000-0-00-0-00-0-8---------7-0000-0--0--0---0-0-0--0--0-----|

 


 **** ** ** **** * * * * * * * *


 


 


 CLEAN SECTION +DELAY


 [1]  

 
 --5------------------------5---_----------------------|
 ----6--^---DR--------------6--/ \--------DR-----------|
 ------7-5--------------------5-7-5--------------------|
 ------------------------------------------------------|
 ------------------------------------------------------|
 ------------------------------------------------------|

 


 [2]  

 
 --8---------DR---------------------------------------------|
 --10-------------------------------------------------------|
 -----------------------------------------------------------|
 -----------------------------------------------------------|
 -----------------------------------------------------------|
 -----------------------------------------------------------|

 


 


 [1]  

 
 --5-------------------------5---_----------------------|
 ----6---^----DR-------------6--/ \--------DR-----------|
 -------7-5--------------------5-7-5--------------------|
 -------------------------------------------------------|
 -------------------------------------------------------|
 -------------------------------------------------------|

 


 


 


 1:24


 


 L


 _


 

 
 ----------0------------------/ \---------------7------------------------|
 -----6------6---6-------5---5-6-5---5------5-----8---8----------5-------|
 -7-7---7------7-----5-5---5-------7----5-5---5-----5--------7-----7---7-|
 --------------------------------------------------------7-7---7-----7---|
 ------------------------------------------------------------------------|
 ------------------------------------------------------------------------|

 


 * * * * * * * * * * * *


 


 R


 

 
 -----------------------------/\----------------7------------------------|
 --------10--------------8---8108---8-------8-----8---8-----------8------|
 ----10----10--10----9-9---9------9-----5-5---5-----5--------10----10--10|
 8-8---8-----8-------------------------------------------7-7----7-----7--|
 ------------------------------------------------------------------------|
 ------------------------------------------------------------------------|

 


 * * * * * * * * * * * * *


 


 L _


 

 
 ----------0------------------/ \---------------7------------------------|
 -----6------6---6-------5---5-6-5---5------5-----8---8----------5-------|
 -7-7---7------7-----5-5---5-------7----5-5---5-----5--------7-----7---7-|
 --------------------------------------------------------7-7---7-----7---|
 ------------------------------------------------------------------------|
 ------------------------------------------------------------------------|

 


 * * * * * * * * * * * *


 R


 

 
 -----------------------------/\----------------7------------------------|
 --------10--------------8---8108---8-------8-----8---8-----------8------|
 ----10----10--10----9-9---9------9-----5-5---5-----5--------10----10--10|
 8-8---8-----8-------------------------------------------7-7----7-----7--|
 ------------------------------------------------------------------------|
 ------------------------------------------------------------------------|

 


 * * * * * * * * * * * * *


 


 


 1:37


 


 L


 

 
 ---------------------------------------------------|
 ---------------------------------------------------|
 -----5-7-9-10---1210-9-10--10-9-7--9---1210-9-10---|
 -----X-X-X--X----X-X-X--X---X-X-X--X----X-X-X--X---|
 -0---3-5-7--8---10-8-7--8---8-7-5--7---10-8-7--8---|
 -0-------------------------------------------------|

 


 |


 R


 

 
 ---------------------------------------------------|
 ---------------------------------------------------|
 ----------------1210-9-----------------1210-9-10---|
 -----------------X-X-X------------------X-X-X--X---|
 -0----------8---10-8-7--3----------5---10-8-7--8---|
 -0----------8-----------3----------5---------------|

 


 |


 


 L


 

 
 -----------------------------------------------|
 -----------------------------------------------|
 -----5-7-9-10---1210-9-10--10-9-7--9---1210-9--|
 -----X-X-X--X----X-X-X--X---X-X-X--X----X-X-X--|
 -0---3-5-7--8---10-8-7--8---8-7-5--7---10-8-7--|
 -0---------------------------------------------|

 


 |


 R


 

 
 -----------------------------------------------|
 -----------------------------------------------|
 ----------------1210-9-----------------1210-9--|
 -----------------X-X-X------------------X-X-X--|
 -0----------8---10-8-7--3----------5---10-8-7--|
 -0----------8-----------3----------5-----------|

 


 |


 


 1:51


 


 

 
 --------------------------------------------------------------------|
 --------------------------------------------------------------------|
 ------------------------5~----------------------------9--------9----|
 -7--5-------------5--------8-7-8--7--5------------------10-------10-|
 ---------------------8----------------------------------------------|
 -------0---000-0------------------------0---000-0--8-------10-------|

 


 *** * *** *


 


 

 
 -----------------------------------------------------------------------|
 -----------------------------------------------------------------------|
 --------------------5~-------------------------------------------------|
 7--5------------5------8-7-8--7--5-------------------------------------|
 ------------------8--------------------------10101010101010101010888877|
 -----0---000-0---------------------0---000-0---------------------------|

 


 *** * *** * * * * * * * * * * *****


 


 


 2:05


 L


 _


 

 
 ----------0------------------/ \---------------7------------------------|
 -----6------6---6-------5---5-6-5---5------5-----8---8----------5-------|
 -7-7---7------7-----5-5---5-------7----5-5---5-----5--------7-----7---7-|
 --------------------------------------------------------7-7---7-----7---|
 ------------------------------------------------------------------------|
 ------------------------------------------------------------------------|

 


 * * * * * * * * * * * *


 R


 

 
 ----------------------------------------------------------------|
 ----------------------------------------------------------------|
 ----------------------------------------------------------------|
 ----------------------------------------------------------------|
 -0--------------------------------------------------------------|
 -0--------------------------------------------------------------|

 


 


 L


 _


 

 
 ----------0------------------/ \---------------7------------------------|
 -----6------6---6-------5---5-6-5---5------5-----8---8----------5-------|
 -7-7---7------7-----5-5---5-------7----5-5---5-----5--------7-----7---7-|
 --------------------------------------------------------7-7---7-----7---|
 ------------------------------------------------------------------------|
 ------------------------------------------------------------------------|

 


 * * * * * * * * * * * *


 


 

 
 ---------------------------------------------------------------|
 ---------------------------------------------------------------|
 ---------------------------------------------------------------|
 ---------------------------------------------------------------|
 -8------------------10------------------0----------------------|
 -8------------------10------------------0----------------------|

 


 


 


 2:18


 


 L


 _


 

 
 ----------0------------------/ \---------------7------------------------|
 -----6------6---6-------5---5-6-5---5------5-----8---8----------5-------|
 -7-7---7------7-----5-5---5-------7----5-5---5-----5--------7-----7---7-|
 --------------------------------------------------------7-7---7-----7---|
 ------------------------------------------------------------------------|
 ------------------------------------------------------------------------|

 


 * * * * * * * * * * * *


 


 R


 

 
 -----------------------------/\----------------7------------------------|
 --------10--------------8---8108---8-------8-----8---8-----------8------|
 ----10----10--10----9-9---9------9-----5-5---5-----5--------10----10--10|
 8-8---8-----8-------------------------------------------7-7----7-----7--|
 ------------------------------------------------------------------------|
 ------------------------------------------------------------------------|

 


 * * * * * * * * * * * * *


 


 L


 _


 

 
 ----------0------------------/ \---------------7------------------------|
 -----6------6---6-------5---5-6-5---5------5-----8---8----------5-------|
 -7-7---7------7-----5-5---5-------7----5-5---5-----5--------7-----7---7-|
 --------------------------------------------------------7-7---7-----7---|
 ------------------------------------------------------------------------|
 ------------------------------------------------------------------------|

 


 * * * * * * * * * * * *


 R


 

 
 -----------------------------/\----------------7------------------------|
 --------10--------------8---8108---8-------8-----8---8-----------8------|
 ----10----10--10----9-9---9------9-----5-5---5-----5--------10----10--10|
 8-8---8-----8-------------------------------------------7-7----7-----7--|
 ------------------------------------------------------------------------|
 ------------------------------------------------------------------------|

 


 * * * * * * * * * * * * *


 


 


 

 
 ---------------------------------------------------------|
 ---------------------------------------------------------|
 ---------------------------------------------------------|
 -------------------------------------------7-------------|
 -0--------------------------------------------------10---|
 -0------------------------------------8888---8888-10--10-|

 


 **** ****


 


 2:39


 


 

 
 ---------------------------------------------------------------------|
 ---------------------------------------------------------------------|
 -----------------------9--------9------------12--10--9-------9--5-7--|
 -------------------------10-------10----------X---X--X-------X--X-X--|
 --------------------------------------------/10---8--7-------7--3-5--|
 -7-0000-0-00-0-00-0-8-------10-------7-00-0------------00000---------|

 


 **** ** ** ** *****


 


 

 
 ---------------------------------------------------------------|
 ---------------------------------------------------------------|
 -------------------------14------------------------------------|
 --------------------------X------------------------------------|
 --------------------8---/12-\-7------0--0--0---0-0-0--0--0-----|
 -7-0000-0-00-0-00-0-8---------7-0000-0--0--0---0-0-0--0--0-----|

 


 **** ** ** **** * * * * * * * *


 


 

 
 ---------------------------------------------------------------------|
 ---------------------------------------------------------------------|
 -----------------------9--------9------------12--10--9-------9--5-7--|
 -------------------------10-------10----------X---X--X-------X--X-X--|
 --------------------------------------------/10---8--7-------7--3-5--|
 -7-0000-0-00-0-00-0-8-------10-------7-0000------------00000---------|

 


 **** ** ** **** *****


 


 

 
 ---------------------------------------------------------------|
 ---------------------------------------------------------------|
 -------------------------14------------------------------------|
 --------------------------X------------------------------------|
 --------------------8---/12-\-7------0--0--0---0-0-0--0--0-----|
 -7-0000-0-00-0-00-0-8---------7-0000-0--0--0---0-0-0--0--0-----|

 


 **** ** ** **** * * * * * * * *


 


 


 _


 

 
 ----------0------------------/ \---------------7----------|
 -----6------6---6-------5---5-6-5---5------5-----8---8----|
 -7-7---7------7-----5-5---5-------7----5-5---5-----5------|
 ----------------------------------------------------------|
 ----------------------------------------------------------|
 ----------------------------------------------------------|

 


 


 


 3:13


 


 

 
 --------------------------------------------------------------------|
 --------------------------------------------------------------------|
 ------------------------5~----------------------------9--------9----|
 -7--5-------------5--------8-7-8--7--5------------------10-------10-|
 ---------------------8----------------------------------------------|
 -------0---000-0------------------------0---000-00--8-------10------|

 


 *** * *** **


 

 
 ------------------------------------------------------------------------|
 ------------------------------------------------------------------------|
 --------------------5~--------------------------------------------------|
 7--5------------5-------8-7-8--7--5-------------------------------------|
 ------------------8---------------------------10101010101010101010888877|
 -----0---000-0----------------------0---000-0---------------------------|

 


 *** * *** * * * * * * * * * * *******


 


 

 
 --------------------------------------------------------------------|
 --------------------------------------------------------------------|
 ------------------------5~----------------------------9--------9----|
 -7--5-------------5--------8-7-8--7--5------------------10-------10-|
 ---------------------8----------------------------------------------|
 -------0---000-0------------------------0---000-00--8-------10------|

 


 *** * *** **


 

 
 ------------------------------------------------------------------------|
 ------------------------------------------------------------------------|
 --------------------5~--------------------------------------------------|
 7--5------------5-------8-7-8--7--5-------------------------------------|
 ------------------8---------------------------10101010101010101010888877|
 -----0---000-0----------------------0---000-0---------------------------|

 


 *** * *** * * * * * * * * * * *******


 


 


 3:41


 


 [1]  

 
 ----------17---------15----------13----------12---------|
 --------15---------15----------15----------15---15------|
 ------14---------14----------14----------14--------14---|
 ----15---------15----------15----------15---------------|
 --17---------17----------17----------17-----------------|
 --------------------------------------------------------|

 


 [2]  

 
 --------------------------------------------------------|
 --------------------------------------------------------|
 --------------------------------------------------------|
 --------------------------------------------------------|
 -0------------------------------------------------------|
 -0------------------------------------------------------|

 


 


 [1]  

 
 ----------17---------15----------13----------12---------|
 --------15---------15----------15----------15---15------|
 ------14---------14----------14----------14--------14---|
 ----15---------15----------15----------15---------------|
 --17---------17----------17----------17-----------------|
 --------------------------------------------------------|

 


 [2]  

 
 --------------------------------------------------------|
 --------------------------------------------------------|
 --------------------------------------------------------|
 --------------------------------------------------------|
 -10-----------------------------------------------------|
 -10-----------------------------------------------------|

 


 


 [1]  

 
 ----------17---------15----------13----------12---------|
 --------15---------15----------15----------15---15------|
 ------14---------14----------14----------14--------14---|
 ----15---------15----------15----------15---------------|
 --17---------17----------17----------17-----------------|
 --------------------------------------------------------|

 


 [2]  

 
 --------------------------------------------------------|
 --------------------------------------------------------|
 --------------------------------------------------------|
 --------------------------------------------------------|
 -8------------------------------------------------------|
 -8------------------------------------------------------|

 


 


 [1]  

 
 ----------17---------15----------13----------12---------|
 --------15---------15----------15----------15---15------|
 ------14---------14----------14----------14--------14---|
 ----15---------15----------15----------15---------------|
 --17---------17----------17----------17-----------------|
 --------------------------------------------------------|

 


 [2]  

 
 --------------------------------------------------------|
 --------------------------------------------------------|
 --------------------------------------------------------|
 --------------------------------------------------------|
 -3-------------------------------7-------5--------------|
 -3-------------------------------7-------5--------------|

 


 


 [1]  

 
 ----------17---------15----------13----------12---------|
 --------15---------15----------15----------15---15------|
 ------14---------14----------14----------14--------14---|
 ----15---------15----------15----------15---------------|
 --17---------17----------17----------17-----------------|
 --------------------------------------------------------|

 


 [2]  

 
 --------------------------------------------------------|
 --------------------------------------------------------|
 --------------------------------------------------------|
 --------------------------------------------------------|
 -3-5---------------------------------------------7------|
 -3-5---------------------------------------------7------|

 


 


 


 [1]  

 
 ----------17---------15----------13----------12---------|
 --------15---------15----------15----------15---15------|
 ------14---------14----------14----------14--------14---|
 ----15---------15----------15----------15---------------|
 --17---------17----------17----------17-----------------|
 --------------------------------------------------------|

 


 [2]  

 
 --------------------------------------------------------|
 --------------------------------------------------------|
 --------------------------------------------------------|
 --------------------------------------------------------|
 -8---------------------------------------------10-------|
 -8---------------------------------------------10-------|

 


 


 [1]  

 
 ----------17---------15----------13----------12---------|
 --------15---------15----------15----------15---15------|
 ------14---------14----------14----------14--------14---|
 ----15---------15----------15----------15---------------|
 --17---------17----------17----------17-----------------|
 --------------------------------------------------------|

 


 [2]  

 
 --------------------------------------------------------|
 --------------------------------------------------------|
 --------------------------------------------------------|
 --------------------------------------------------------|
 -12---------------------------------------------12------|
 -12---------------------------------------------12------|

 


 


 


 [1]  

 
 ----------17---------15----------13----------12---------|
 --------15---------15----------15----------15---15------|
 ------14---------14----------14----------14--------14---|
 ----15---------15----------15----------15---------------|
 --17---------17----------17----------17-----------------|
 --------------------------------------------------------|

 


 [2]  

 
 --------------------------------------------------------|
 --------------------------------------------------------|
 --------------------------------------------------------|
 --------------------------------------------------------|
 -10-----------------------------------------------------|
 -10-----------------------------------------------------|

 


 


 [1]  

 
 -12-----------------------------------------------------|
 ----15--------------------------------------------------|
 -------14-----------------------------------------------|
 --------------------------------------------------------|
 --------------------------------------------------------|
 --------------------------------------------------------|
 --------------------------------------------------------|
 --------------------------------------------------------|
 --------------------------------------------------------|
 --------------------------------------------------------|
 -0------------------------------------------------------|
 -0------------------------------------------------------|


Important: The song above is NOT stored on the Chordie server. The original song is hosted at www.guitaretab.com. Chordie works as a search engine and provides on-the-fly formatting. Chordie does not index songs against artists'/composers' will. To remove this song please click here.

This song is displayed as text-only. Transposing and tuning is only available for chordpro-songs.
Rate #1 of 1 versions

Jango Player

Login - add to songbook

SHARE PAGE  



You need to log in to post comments