Guitar Tabs, Chords and Lyrics
Server problems seems to be fixed. Chordie has been experiencing problems with songs disappearing. These issues now seems to be fixed, but still verifying the fix. If you find anything strange, please email admin@chordie.com.


Five Months  Parkway Drive

[B-F#-B-E-G#-C#]  
TABBED BY andherembrace
[1]  
 
 -----------------------------------------------------------------------|
 -----------------------------------------------------------------------|
 ----7-10-9------------7-10-9----7~------7-10-9------14-12-10-----------|
 8-8--------10-0-8---8--------10-----8-8--------10-0-15-14-12---14---12~|
 -----------------------------------------------------------------------|
 -------------------------------------------------------------10---10---|

* * * * * * * * *
[2]  
 
 -------------------------------------------------------------------------|
 -------------------------------------------------------------------------|
 -------------------------------------------------------------------------|
 -----------------8---------------------------------12--12-12-12-14-14-14-|
 -8-8-----------8-8-------------------8-8------------8---8--8--8-10-10-10-|
 -8-8-----------8-8-------------------8-8------------8---8--8--8-10-10-10-|

* * * * *
[1]  
 
 ------------------------------------------------------------------------|
 ----------------------------------------------------10------------------|
 ----7-10-9------------7-10-9----7~------7-10-9------10--9-10---10-10-7-7|
 8-8--------10-0-8---8--------10-----8-8--------10-0-12-10-12-0----------|
 ------------------------------------------------------------------------|
 ------------------------------------------------------------------------|

* * * * * * * *
[2]  
 
 -------------------------------------------------------------------------|
 -------------------------------------------------------------------------|
 -------------------------------------------------------------------------|
 -----------------8---------------------------------12--12-12-12-14-14-14-|
 -8-8-------8-8-8-8-------------------8-8------------8---8--8--8-10-10-10-|
 -8-8-------8-8-8-8-------------------8-8------------8---8--8--8-10-10-10-|

* * * * * * * *
0;11
[1]  
 
 -----------------------------------------------------------------------|
 -----------------------------------------------------------------------|
 -----7-10-9-----------7-10-9----7-7-----7-10-9------14-12-10-----------|
 -8-8--------10-0-8--8--------10-----8-8--------10-0-15-14-12---14---12~|
 -----------------------------------------------------------------------|
 -------------------------------------------------------------10---10---|

* * * * * * * *
[2]  
 
 -----------------------------------------------------------------------|
 -----------------------------------------------------------------------|
 -----7-10-9-----------7-10-9----7-7-----7-10-9------14-12-10-----------|
 ------------10---8--8--------10----------------10---15-14-12---14--12~-|
 -8-8-----------8-8--8---------------8-8----------------------10--10----|
 -8-8-----------8-8--8---------------8-8-----------0----------10--10----|

* * * * * * * *
[1]  
 
 -------------------------------------------------------------------------|
 ----------------------------------------------------10-------------------|
 ----7-10-9------------7-10-9----7-7-----7-10-9------10--9-10---10-10-7-7-|
 8-8--------10-0-8---8--------10-----8-8--------10-0-12-10-12-0-----------|
 -------------------------------------------------------------------------|
 -------------------------------------------------------------------------|

* * * * * * * *
[2]  
 
 --------------------------------------------------------------------------|
 --------------------------------------------------------------------------|
 -----7-10-9-----------7-10-9----7-7-----7-10-9----------------------------|
 ------------10---8--8--------10----------------10----P--------------------|
 -8-8-----------8-8--8---------------8-8---------------S-------------------|
 -8-8-----------8-8--8---------------8-8-----------0----\------------------|

* * * * * *
0:22
1 L HARMONY
 
 ------------------------------------------------------------------------|
 ------------------------------------------------------------------------|
 -----7-10-9------------7-10-9----7~------7-10-9------14-12-10-----------|
 -8-8--------10-0-10-10--------10-----0-0--------10-0-15-14-12---14---12~|
 ------------------------------------------------------------------------|
 --------------------------------------------------------------10---10---|

* * * * * * * * *
2 R HARMONY
 
 ------------------------------------------------------------------------|
 ------------------------------------------------------------------------|
 -----10-14-12-----------10-14-12--10----10-14-12-----17-15-14---12---10~|
 12-12--------14-0-14-14---------14---0-0--------14-0-19-17-15-----------|
 ------------------------------------------------------------------------|
 --------------------------------------------------------------10---10---|

* * * * * * * * *
3 RYTHM
 
 ---------------------------------------------------------------------|
 ---------------------------------------------------------------------|
 ---------------------------------------------------------------------|
 -8----------------10------------------0------------------------------|
 -8----------------10------------------0------------------------------|
 -8----------------10------------------0------------------------------|

1 L HARMONY
 
 ---------------------------------------------------------------------|
 ---------------------------------------------------------------------|
 ----7-10-9------------7-10-9----7~-----7-10-9------------------------|
 8-8--------10-0-10-10--------10----0-0--------10-0-------------------|
 ----------------------------------------------------/10--8-7-/8--7-5-|
 ---------------------------------------------------------------------|

* * * * * * *
2 R HARMONY
 
 ----------------------------------------------------------------------|
 ----------------------------------------------------------------------|
 -----10-14-12----------10-14-12--10---10-14-12-----/15-14-12-/14-12-10|
 12-12--------14-0-14-14--------14--0-0--------14-0--------------------|
 ----------------------------------------------------------------------|
 ----------------------------------------------------------------------|

* * * * * * *
3 RYTHM
 
 ---------------------------------------------------------------------|
 ---------------------------------------------------------------------|
 ---------------------------------------------------------------------|
 -8----------------10------------------0------------------------------|
 -8----------------10------------------0------0-0-0-------------------|
 -8----------------10------------------0------0-0-0-------------------|

* * *
0:33
1L
 
 ---------------------------------------------------------------------|
 ---------------------------------------------------------------------|
 ---------------------------------------------------------------------|
 --------------------------------------------------------------7------|
 -5-----8-----------7-----7-8-7----5-----8-----------10-----10---8-10-|
 ---0-0---0-0-8-0-0---0-0-------10---0-0---0-0-8-0-0----0-0-----------|

* * * * * * * * * * * * * * * *
2R
 
 -----------------------------------------------------------------------|
 -----------------------------------------------------------------------|
 -----------------------------------------------------------------------|
 ---------------------------------------------------------------7-------|
 --------------------7-----7-8-7----5-----8-----------10-----10---8-10--|
 --------------8-0-0---0-0-------10---0-0---0-0-8-0-0----0-0------------|

* * * * * * * * * * * *
1L
 
 ----------------------------------------------------------------------|
 ----------------------------------------------------------------------|
 ----------------------------------------------------------------------|
 ----------------------------------------------------------------------|
 -5-----8-----------7-----7-8-7----5-----8888887777--------7777775555--|
 ---0-0---0-0-8-0-0---0-0-------10---0-0------------10-0-0-------------|

* * * * * * * * * * * *
2R
 
 ----------------------------------------------------------------------|
 ----------------------------------------------------------------------|
 ----------------------------------------------------------------------|
 ----------------------------------------------------------------------|
 -5-----8-----------7-----7-8-7----5-----8888887777--------7777775555--|
 ---0-0---0-0-8-0-0---0-0-------10---0-0------------10-0-0-------------|

* * * * * * * * * * * *
0:44
L
 
 -------------------------------------------------------------------------|
 -------------------------------------------------------------------------|
 -------------------------------------------------------------------------|
 -------------------------------------------------------------------------|
 -8-----12------------10-----10-12-10---8-----12------------10-----7-8-5-7|
 ---0-0----0-0-12-0-0----0-0---------14---0-0----0-0-12-0-0----0-0--------|

* * * * * * * * * * * * * * * *
2R
 
 ----------------------------------------------------------------------|
 ----------------------------------------------------------------------|
 ----------------------------------------------------------------------|
 --------------------------------------------------------------7-------|
 -5-----8-----------7-----7-8-7----5-----8-----------10-----10---8-10--|
 ---0-0---0-0-8-0-0---0-0-------10---0-0---0-0-8-0-0----0-0------------|

* * * * * * * * * * * * * * * *
L
 
 ----------------------------------------------------------------------------|
 ----------------------------------------------------------------------------|
 ----------------------------------------------------------------------------|
 ----------------------------------------------------------------------------|
 8---12----------10---10-12-10--8---12121212121210101010-7---1010101010108888|
 -0-0--0-0-12-0-0--0-0--------14-0-0----------------------0-0----------------|

* * * * * * * * * * * *
2R
 
 ----------------------------------------------------------------------|
 ----------------------------------------------------------------------|
 ----------------------------------------------------------------------|
 ----------------------------------------------------------------------|
 -5-----8-----------7-----7-8-7----5-----8888887777--------7777775555--|
 ---0-0---0-0-8-0-0---0-0-------10---0-0------------10-0-0-------------|

* * * * * * * * * * * *
0:55
[B]  
 
 -----------------------------------------------------------------|
 -----------------------------------------------------------------|
 -----------------------------------------------------------------|
 -----------------------------------------------------------------|
 ----555555333----777777333-----8888885555-8-55-10-77-12-88-10-77-|
 -000---------333-----------555-----------------------------------|

** ** ** **
 
 ----------------------------------------------------------------|
 ----------------------------------------------------------------|
 ----------------------------------------------------------------|
 -----------------------------------------------10---------------|
 ----555555333----777777333-----8888885555---12----12----12---10-|
 -000---------333-----------555------------8----------10----7----|

* * * *
1:05
L
 
 --------------------------------------------------------------------|
 --------------------------------------------------------------------|
 --------------------------------------------------------------------|
 ----3333332222---5555553333---7777775555----------------------------|
 -----------------------------------------8-555-10-777-12-888-10-777-|
 -000----------333----------555--------------------------------------|

R *** *** *** ***
 
 --------------------------------------------------------------------|
 --------------------------------------------------------------------|
 --------------------------------------------------------------------|
 --------------------------------------------------------------------|
 ----555555333----777777333-----8888885555-8-555-10-777-12-888-10-777|
 -000---------333-----------555--------------------------------------|

*** *** *** ***
L
 
 ---------------------------------------------------------------|
 ---------------------------------------------------------------|
 ---------------------------------------------------------------|
 ----3333332222---5555553333---7777775555-----------------------|
 ------------------------------------------8---------10---------|
 -000----------333----------555------------8---------10---------|

R
 
 ----------------------------------------------------------------|
 ----------------------------------------------------------------|
 ----------------------------------------------------------------|
 -----------------------------------------------10---------------|
 ----555555333----777777333-----8888885555---12----12----12---10-|
 -000---------333-----------555------------8----------10----7----|

* * * *
[B]  
 
 ---------|
 -9-------|
 -9-------|
 -9-------|
 ---------|
 ---------|

1:20
L
 
 ------------------------------------------------------------------|
 ------------------------------------------------------------------|
 ------------------------------------------------------------------|
 ---------------------7--------------------5-------------------3---|
 -0-0-0-------00-00-8---8----------00-00-8---8-0-0-0-------3-7---7-|
 -0-0-0-------00-00----------------00-00-------0-0-0-------3-------|

* * * ** ** ** ** * * * *
R
 
 ------------------------------------------------------------------|
 ------------------------------------------------------------------|
 ------------------------------------------------------------------|
 ---------5--------------------3-----------------------7-----------|
 -0-0-0-8---8-00-00--------3-7---7-00-00-------0-0-0-8---8---------|
 -0-0-0-------00-00--------3-------00-00-------0-0-0---------------|

* * * ** ** * ** ** * * *
L
 
 ------------------------------------------------------------------|
 ------------------------------------------------------------------|
 ------------------------------------------------------------------|
 ---------------------7--------------------5-------------------3---|
 -0-0-0-------00-00-8---8----------00-00-8---8-0-0-0-------3-7---7-|
 -0-0-0-------00-00----------------00-00-------0-0-0-------3-------|

* * * ** ** ** ** * * * *
R
 
 ------------------------------------------------------------------|
 ------------------------------------------------------------------|
 ------------------------------------------------------------------|
 ---------5--------------------3-----------------------7-----------|
 -0-0-0-8---8-00-00--------3-7---7-00-00-------0-0-0-8---8---------|
 -0-0-0-------00-00--------3-------00-00-------0-0-0---------------|

* * * ** ** * ** ** * * *
1:34
L
 
 -------------------------------------------------------------------|
 -------------------------------------------------------------------|
 ---------3-----------5--------------------3-----------5------------|
 -------7---7-------7---7------3---------7---7-------7---7-----3----|
 -0-0-0-------00-00--------3-7---7-00-00-------0-0-0-------3-7---7--|
 -0-0-0-------00-00--------3-------00-00-------0-0-0-------3--------|

* * * ** ** * ** ** * * * *
R
 
 -------------------------------------------------------------------|
 -------------------------------------------------------------------|
 -------------------------------------------------------------------|
 ---------5--------------------3-----------------------7-------3----|
 -0-0-0-8---8-00-00--------3-7---7-00-00-------0-0-0-8---8-3-7---7--|
 -0-0-0-------00-00--------3-------00-00-------0-0-0-------3--------|

* * * ** ** * ** ** * * * *
L
 
 -------------------------------------------------------------------|
 -------------------------------------------------------------------|
 ---------3-----------5--------------------3-----------5------------|
 -------7---7-------7---7------3---------7---7-------7---7-----3----|
 -0-0-0-------00-00--------3-7---7-00-00-------0-0-0-------3-7---7--|
 -0-0-0-------00-00--------3-------00-00-------0-0-0-------3--------|

* * * ** ** * ** ** * * * *
R
 
 -------------------------------------------------------------------|
 -------------------------------------------------------------------|
 -------------------------------------------------------------------|
 ---------5--------------------3-----------------------7-------3----|
 -0-0-0-8---8-00-00--------3-7---7-00-00-------0-0-0-8---8-3-7---7--|
 -0-0-0-------00-00--------3-------00-00-------0-0-0-------3--------|

* * * ** ** * ** ** * * * *
1:48
L
 
 -----------------------------------------------------------------------|
 -----------------------------------------------------------------------|
 -----------------------------------------------------------------------|
 --------10101010------------7777---------------------------------------|
 ----------------8888------------8888-------------3---5~-----------3-5~-|
 88888888------------55555555--------0000-00--000---0----0-00--000------|

**** ** *** * * ** ***
R
 
 -----------------------------------------------------------------------|
 -----------------------------------------------------------------------|
 -----------------------------------------------------------------------|
 -----------------------------------------------------------------------|
 8-------------------5----------------------------3---5~-----------3-5~-|
 8-------------------5------/--\-----0000-00--000---0----0-00--000------|

| | **** ** *** * * ** ***
[B]  
 
 -----------------------------------------------------------------------|
 -----------------------------------------------------------------------|
 -----------------------------------------------------------------------|
 --------10101010------------7777---------------------------------------|
 ----------------8888------------8888-------------3---5~-----------3-5~-|
 88888888------------55555555--------0000-00--000---0----0-00--000------|

**** ** *** * * ** ***
L
 
 ----------------------------------------------------------------------|
 ----------------------------------------------------------------------|
 --------999910101010--------999910101010------------------------------|
 ----------------------------------------------------------------------|
 -----------------------------------------------------7-8~---------7-8~|
 88888888------------55555555-------------0000-00-000--0--0-00-000--0--|

R **** ** *** * * ** *** *
 
 -----------------------------------------------------------------------|
 -----------------------------------------------------------------------|
 -----------------------------------------------------------------------|
 --------10101010------------7777---------------------------------------|
 ----------------8888------------8888-------------3---5~-----------3--5~|
 88888888------------55555555--------0000-00--000---0----0-00--000---0--|

**** ** *** * * ** *** *
L
 
 ----------------------------------------------------------------------|
 ----------------------------------------------------------------------|
 --------999910101010--------999910101010------------------------------|
 ----------------------------------------------------------------------|
 -----------------------------------------------------7-8~---------7-8~|
 88888888------------55555555-------------0000-00-000--0--0-00-000--0--|

R **** ** *** * * ** *** *
 
 -----------------------------------------------------------------------|
 -----------------------------------------------------------------------|
 -----------------------------------------------------------------------|
 --------10101010------------7777---------------------------------------|
 ----------------8888------------8888-------------3---5~-----------3--5~|
 88888888------------55555555--------0000-00--000---0----0-00--000---0--|

**** ** *** * * ** *** *
 
 ----------|
 ----------|
 ----------|
 -8--------|
 -8--------|
 -8--------|

2:12
[1]  
 
 ---------------------------------------------|
 --1----------3-----------5-------------------|
 --3----------5-----------7-------------------|
 --3----------5-----------7-------------------|
 --1----------3-----------5-------------------|
 ---------------------------------------------|

[2]  
 
 ---------------------------------------------|
 --6----------5-----------5-------------------|
 7----------7-----------5---------------------|
 ---------------------------------------------|
 ---------------------------------------------|
 ---------------------------------------------|

[1]  
 
 ---------------------------------------------|
 --1----------3-----------5-------------------|
 --3----------5-----------7-------7-----------|
 --3----------5-----------7---------7---------|
 --1----------3-----------5-------------------|
 ---------------------------------------------|

[2]  
 
 ---------------------------------------------|
 --6----------5-----------5-------------------|
 7----------7-----------5---------7-----------|
 -----------------------------------7---------|
 ---------------------------------------------|
 ---------------------------------------------|

[1]  
 
 ---------------------------------------------|
 --1----------3-----------5-------------------|
 --3----------5-----------7-------------------|
 --3----------5-----------7-------------------|
 --1----------3-----------5-------------------|
 ---------------------------------------------|

[2]  
 
 ---------------------------------------------|
 --6----------5-----------5-------------------|
 7----------7-----------5---------------------|
 ---------------------------------------------|
 ---------------------------------------------|
 ---------------------------------------------|

[1]  
 
 ---------------------------------------------|
 --1----------3-----------5-------------------|
 --3----------5-----------7-------7-----------|
 --3----------5-----------7---------7---------|
 --1----------3-----------5-------------------|
 ---------------------------------------------|

[2]  
 
 ---------------------------------------------|
 --6----------5-----------5-------------------|
 7----------7-----------5---------7-----------|
 -----------------------------------7---------|
 ---------------------------------------------|
 ---------------------------------------------|

2:36
 
 ---------------------------------------------------------------|
 ----10----------------------------------------------)(^--------|
 ----------10----12----10----10----9----12----9----12---10-12~--|
 -12----12----12----12----12----10---10----10---10--------------|
 ---------------------------------------------------------------|
 ---------------------------------------------------------------|
 -------------------------------------------------------------------|
 -13------------------10--------------------------------------------|
 ----12-10-9/10-------------10----12----10----10----9----12----9----|
 ---------------12-12----12----12----12----12----10---10----10---10-|
 -------------------------------------------------------------------|
 -------------------------------------------------------------------|
 ----------------------------------|
 ----------------------------------|
 ----------------------------------|
 -0--------------------------------|
 -0-0-0-0-0-0-0-0-0-0-0-0-0-0-0-0--|
 -0-0-0-0-0-0-0-0-0-0-0-0-0-0-0-0--|

* * * * * * * * * * * * * * *
2:48
[1]  
 
 -----------------------------------------------------------------------|
 -----------------------------------------------------------------------|
 -----7-10-9-----------7-10-9----7-7-----7-10-9------14-12-10-----------|
 -8-8--------10-0-8--8--------10-----8-8--------10-0-15-14-12---14---12~|
 -----------------------------------------------------------------------|
 -------------------------------------------------------------10---10---|

* * * * * * * *
[2]  
 
 -----------------------------------------------------------------------|
 -----------------------------------------------------------------------|
 -----7-10-9-----------7-10-9----7-7-----7-10-9------14-12-10-----------|
 ------------10---8--8--------10----------------10---15-14-12---14--12~-|
 -8-8-----------8-8--8---------------8-8----------------------10--10----|
 -8-8-----------8-8--8---------------8-8-----------0----------10--10----|

* * * * * * * *
[1]  
 
 -------------------------------------------------------------------------|
 ----------------------------------------------------10-------------------|
 ----7-10-9------------7-10-9----7-7-----7-10-9------10--9-10---10-10-7-7-|
 8-8--------10-0-8---8--------10-----8-8--------10-0-12-10-12-0-----------|
 -------------------------------------------------------------------------|
 -------------------------------------------------------------------------|

* * * * * * * *
[2]  
 
 --------------------------------------------------------------------------|
 --------------------------------------------------------------------------|
 -----7-10-9-----------7-10-9----7-7-----7-10-9----------------------------|
 ------------10---8--8--------10----------------10----P--------------------|
 -8-8-----------8-8--8---------------8-8---------------S-------------------|
 -8-8-----------8-8--8---------------8-8-----------0----\------------------|

* * * * * *
1 L HARMONY
 
 ------------------------------------------------------------------------|
 ------------------------------------------------------------------------|
 -----7-10-9------------7-10-9----7~------7-10-9------14-12-10-----------|
 -8-8--------10-0-10-10--------10-----0-0--------10-0-15-14-12---14---12~|
 ------------------------------------------------------------------------|
 --------------------------------------------------------------10---10---|

* * * * * * * * *
2 R HARMONY
 
 ------------------------------------------------------------------------|
 ------------------------------------------------------------------------|
 -----10-14-12-----------10-14-12--10----10-14-12-----17-15-14---12---10~|
 12-12--------14-0-14-14---------14---0-0--------14-0-19-17-15-----------|
 ------------------------------------------------------------------------|
 --------------------------------------------------------------10---10---|

* * * * * * * * *
3 RYTHM
 
 ---------------------------------------------------------------------|
 ---------------------------------------------------------------------|
 ---------------------------------------------------------------------|
 10----------------12------------------14-----------------------------|
 -8----------------10------------------12-----------------------------|
 -8----------------10------------------12-----------------------------|

1 L HARMONY
 
 ---------------------------------------------------------------------|
 -------------------------------------------------------------^-------|
 ----7-10-9------------7-10-9----7~-----7-10-9------/12-10-9-9-10-9-7-|
 8-8--------10-0-10-10--------10----0-0--------10-0-------------------|
 ---------------------------------------------------------------------|
 ---------------------------------------------------------------------|

* * * * * * *
2 R HARMONY
 
 ------------------------------------------------------------------------|
 ---------------------------------------------------------------^--------|
 -----10-14-12----------10-14-12--10---10-14-12-----/15-14-12-12-14-12-10|
 12-12--------14-0-14-14--------14--0-0--------14-0----------------------|
 ------------------------------------------------------------------------|
 ------------------------------------------------------------------------|

* * * * * * *
3 RYTHM
 
 ---------------------------------------------------------------------|
 ---------------------------------------------------------------------|
 ---------------------------------------------------------------------|
 12----------------14-----------------15------------------------------|
 -8----------------10-----------------12------------------------------|
 -8----------------10-----------------12------------------------------|

3:11
1 ______ _____
 
 ---------------------------------------) (-------) (------|
 ------15--/\---------18--------------22-------22~-20------20~--|
 12/14---141514--15/17--17/19-----------------------------------|
 --------------17-----------------------------------------------|
 ---------------------------------------------------------------|
 ---------------------------------------------------------------|

[2]  
 
 ---------------------------------------------------------------|
 ---------------------------------------------------------------|
 ---------------------------------------------------------------|
 12--------------------14-------------15------------------------|
 -8--------------------10-------------12------------------------|
 -8--------------------10-------------12------------------------|

__________________________ __________ __________
1 / \ / \ / \
-13101310131013101310131013101310-1713171317131713-1512151215121512|
 
 -------------------------------------------------------------------|
 -------------------------------------------------------------------|
 -------------------------------------------------------------------|
 -------------------------------------------------------------------|
 -------------------------------------------------------------------|

T T T T T T T T
[2]  
 
 -------------------------------------------------------------------|
 -------------------------------------------------------------------|
 -------------------------------------------------------------------|
 12--------------------------------14-------------------------------|
 -8--------------------------------10-------------------------------|
 -8--------------------------------10-------------------------------|

______
1 __________________ __ / \
 
 ----/ \-----/ \---131513151315-13-12------|
 --171317131713171317131713-13151315-------------------15~---|
 ------------------------------------------------------------|
 ------------------------------------------------------------|
 ------------------------------------------------------------|
 ------------------------------------------------------------|

T T T T T T
[2]  
 
 ------------------------------------------------------------|
 ------------------------------------------------------------|
 ------------------------------------------------------------|
 --15-----------------------15-------------------------------|
 --12-----------------------12-------------------------------|
 --12-----------------------12-------------------------------|

|
3:23
[1]  
 
 -17-----17-----17----12------12------12----------------------------20------|
 ---15-----15-----15----13------13------13--18----20----18----20------18----|
 -----14-----14-------------------------------1717--1717--1717--1717----1717|
 --------------------------15------15---------------------------------------|
 ---------------------------------------------------------------------------|
 ---------------------------------------------------------------------------|

[2]  
 
 -20-----20-----20--------------------------17----20----17----20----20------|
 ---18-----18-----18-20-17----20-17---20-17---1818--1818--1818--1818--181818|
 -----17-----17-------------------------------------------------------------|
 --------------------------19-------19--------------------------------------|
 ---------------------------------------------------------------------------|
 ---------------------------------------------------------------------------|

RYTHM
 
 ---------------------------------------------------------------------|
 ---------------------------------------------------------------------|
 ---------------------------------------------------------------------|
 12----------------------14-----------------15------------------------|
 -8----------------------10-----------------12------------------------|
 -8----------------------10-----------------12------------------------|

[1]  
 
 -17-----17-----17--------------------------------------------------20------|
 ---15-----15-----15--17-13---17-13---17-13-18----20----18----20------18----|
 -----14-----14-------------------------------1717--1717--1717--1717----1717|
 --------------------------15------15---------------------------------------|
 ---------------------------------------------------------------------------|
 ---------------------------------------------------------------------------|

[2]  
 
 -20-----20-----20--------------------------17----20----17----20----20------|
 ---18-----18-----18-20-17----20-17---20-17---1818--1818--1818--1818--181818|
 -----17-----17-------------------------------------------------------------|
 --------------------------19-------19--------------------------------------|
 ---------------------------------------------------------------------------|
 ---------------------------------------------------------------------------|

RYTHM
 
 ---------------------------------------------------------------------|
 ---------------------------------------------------------------------|
 ---------------------------------------------------------------------|
 12----------------------14-----------------15------------------------|
 -8----------------------10-----------------12------------------------|
 -8----------------------10-----------------12------------------------|

1 )~~~~
 
 -17-----17-----17---------------------------13-12--15-12--13-12-15-----|
 ---15-----15-----15--17-13---17-13---17-13-------13-----13-------------|
 -----14-----14---------------------------------------------------------|
 --------------------------15------15-----------------------------------|
 -----------------------------------------------------------------------|
 -----------------------------------------------------------------------|

[2]  
 
 -20-----20-----20----------------------------|
 ---18-----18-----18-20-17----20-17---20-17---|
 -----17-----17-------------------------------|
 --------------------------19-------19--------|
 ---------------------------------------------|
 ---------------------------------------------|

RYTHM
 
 ----------------------------------------------------------------------|
 ----------------------------------------------------------------------|
 ----------------------------------------------------------------------|
 12----------------------14--------------------------------------------|
 -8----------------------10-----------------12-12-12-12-12-12-12-12-12-|
 -8----------------------10-----------------12-12-12-12-12-12-12-12-12-|

* * * * * * * * |
3:35
[B]  
 
 -----------------------------------------------------------------------|
 -----------------------------------------------------------------------|
 -----------------------------------------------------------------------|
 --------10101010------------7777---------------------------------------|
 ----------------8888------------8888-------------3---5~-----------3-5~-|
 88888888------------55555555--------0000-00--000---0----0-00--000------|

**** ** *** * * ** ***
 
 -----------------------------------------------------------------------|
 -----------------------------------------------------------------------|
 -----------------------------------------------------------------------|
 --------10101010------------7777---------------------------------------|
 ----------------8888------------8888-------------3---5~-----------3-5~-|
 88888888------------55555555--------0000-00--000---0----0-00--000------|

**** ** *** * * ** ***
L
 
 ----------------------------------------------------------------------|
 ----------------------------------------------------------------------|
 --------999910101010--------999910101010------------------------------|
 ----------------------------------------------------------------------|
 -----------------------------------------------------7-8~---------7-8~|
 88888888------------55555555-------------0000-00-000--0--0-00-000--0--|

R **** ** *** * * ** *** *
 
 -----------------------------------------------------------------------|
 -----------------------------------------------------------------------|
 -----------------------------------------------------------------------|
 --------10101010------------7777---------------------------------------|
 ----------------8888------------8888-------------3---5~-----------3--5~|
 88888888------------55555555--------0000-00--000---0----0-00--000---0--|

**** ** *** * * ** *** *
L
 
 ----------------------------------------------------------------------|
 ----------------------------------------------------------------------|
 --------999910101010--------999910101010------------------------------|
 ----------------------------------------------------------------------|
 -----------------------------------------------------7-8~---------7-8~|
 88888888------------55555555-------------0000-00-000--0--0-00-000--0--|

R **** ** *** * * ** *** *
 
 -----------------------------------------------------------------------|
 -----------------------------------------------------------------------|
 -----------------------------------------------------------------------|
 --------10101010------------7777---------------------------------------|
 ----------------8888------------8888-------------3---5~-----------3--5~|
 88888888------------55555555--------0000-00--000---0----0-00--000---0--|

**** ** *** * * ** *** *
 
 ----------|
 ----------|
 ----------|
 -0--------|
 -0--------|
 -0--------|

|

Important: The song above is NOT stored on the Chordie server. The original song is hosted at www.guitaretab.com. Chordie works as a search engine and provides on-the-fly formatting. Chordie does not index songs against artists'/composers' will. To remove this song please click here.

Text color:
Chord color:
Chord grids: 
Font size:    
Page size: 

B
Rate #1 of 1 versions

Jango Player

Login - add to songbook

SHARE PAGE  




You need to log in to post comments