Guitar Tabs, Chords and Lyrics
Server problems seems to be fixed. Chordie has been experiencing problems with songs disappearing. These issues now seems to be fixed, but still verifying the fix. If you find anything strange, please email admin@chordie.com.


Breaking Point  Parkway Drive

[B-F#-B-E-G#-C#]  
TABBED BY andherembrace
[1]  
 
 -----------------------------------------------------------------|
 -----------------------------------------------------------------|
 -----------------------------------------------------------------|
 -----------------------------------------------------------------|
 -2---------------------------------------------------------------|
 -2---------------------------------------------------------------|

[2]  
 
 -5-0-0-0-7-0-0-0-8-0-0-0-7-0-0-0-5-0-0-0-7-0-0-0-8-0-0-0-7-0-0-0-|
 -----------------------------------------------------------------|
 -----------------------------------------------------------------|
 -----------------------------------------------------------------|
 -----------------------------------------------------------------|
 -----------------------------------------------------------------|

[1]  
 
 --------------------------------------------------------------------|
 --------------------------------------------------------------------|
 --------------------------------------------------------------------|
 -5------------------------------------------------------------------|
 -3--------------------------------0---------------------------------|
 ----------------------------------0---------------------------------|

[2]  
 
 -10-0-0-0-8-0-0-0-7-0-0-0-5-0-0-0-12-0-0-0-10-0-0-0-8-0-0-0-7-0-0-0-|
 --------------------------------------------------------------------|
 --------------------------------------------------------------------|
 --------------------------------------------------------------------|
 --------------------------------------------------------------------|
 --------------------------------------------------------------------|

[1]  
 
 -----------------------------------------------------------------|
 -----------------------------------------------------------------|
 -----------------------------------------------------------------|
 -----------------------------------------------------------------|
 -2---------------------------------------------------------------|
 -2---------------------------------------------------------------|

[2]  
 
 -5-0-0-0-7-0-0-0-8-0-0-0-7-0-0-0-5-0-0-0-7-0-0-0-8-0-0-0-7-0-0-0-|
 -----------------------------------------------------------------|
 -----------------------------------------------------------------|
 -----------------------------------------------------------------|
 -----------------------------------------------------------------|
 -----------------------------------------------------------------|

[1]  
 
 -----------------------------------------------------------|
 -----------------------------------------------------------|
 -----------------------------------------------------------|
 -5---------------------------------------------------------|
 -3-------------------------------0-------------------------|
 ---------------------------------0-------------------------|

[2]  
 
 --^---------------^---------------^-------^---------)(-----|
 -3-5-0-0-0-0-0-0-5-7-0-0-0-0-0-0-7-8-0-0-8-10-0-0-12--~----|
 -----------------------------------------------------------|
 -----------------------------------------------------------|
 -----------------------------------------------------------|
 -----------------------------------------------------------|

* * * * * * * * * * * * * * * *
0:08
1 ___________________________________________
--/ \--|
128128128128128128128128128128128128128128128128-|
 
 -------------------------------------------------|
 -------------------------------------------------|
 -------------------------------------------------|
 -------------------------------------------------|

T T T T T T T T T T T T T T T T
[2]  
 
 -------------------------------------------------|
 -------------------------------------------------|
 -------------------------------------------------|
 -------------------------------------------------|
 -2-----------------------------------------------|
 -2-----------------------------------------------|

1 ___________________
 
 ---/ \-----____________________---|
 -107107107107107107107107---/ \--|
 --------------------------117117117117-117117117117-|
 ----------------------------------------------------|
 ----------------------------------------------------|
 ----------------------------------------------------|

T T T T T T T T T T T T T T T T
 
 ----------------------------------------------------|
 ----------------------------------------------------|
 ----------------------------------------------------|
 -5--------------------------------------------------|
 -3--------------------------0-----------------------|
 ----------------------------0-----------------------|

1 ___________________________________________
--/ \--|
128128128128128128128128128128128128128128128128-|
 
 -------------------------------------------------|
 -------------------------------------------------|
 -------------------------------------------------|
 -------------------------------------------------|

T T T T T T T T T T T T T T T T
[2]  
 
 -------------------------------------------------|
 -------------------------------------------------|
 -------------------------------------------------|
 -------------------------------------------------|
 -2-----------------------------------------------|
 -2-----------------------------------------------|

1 __________________________________ )(
 
 --/ \---10----|
 1381381381381381381381381510151015101510-------|
 -----------------------------------------------|
 -----------------------------------------------|
 -----------------------------------------------|
 -----------------------------------------------|

T T T T T T T T T T T T
[2]  
 
 -----------------------------------------------|
 -----------------------------------------------|
 -----------------------------------------------|
 -5-------------------------P-------------------|
 -3--------------------------S------------------|
 -----------------------------\-----------------|

0:17
1 ____ ____ ____ ____ H
 
 --/ \-----/ \-----/ \-----/ \----7------------|
 -7--8-7-----7--8-7-----7--8-7-----7--8-7-----7-NB-V--+----|
 ---------------------------------------------H------------|
 --------[9]--------[9]--------[9]-------[9]---------------|
 ----------------------------------------------------------|
 ----------------------------------------------------------|

[2]  
 
 -----------------------------------------------------------------|
 -----------------------------------------------------------------|
 -----------------------------------------------------------------|
 -----------------------------------------------------------------|
 ---------------------------------3-3-333-3-3-333-----------------|
 -2-2-222-2-2-222-2-2-222-2-2-222-----------------0-0-000-0-0-000-|

* * *** * * *** * * *** * * *** * * *** * * *** * * *** * * ***
[1]1915000000191500000019150000001915000000-|
 
 -----------------------------------------|
 -----------------------------------------|
 -----------------------------------------|
 -----------------------------------------|
 -----------------------------------------|

[2]  
 
 -----------------------------------------|
 -----------------------------------------|
 -----------------------------------------|
 -----------------------------------------|
 -----------------------------------------|
 -2-2-222-2-2-222-2-2-222-2-2-222---------|

* * *** * * *** * * *** * * ***
[1]  
 
 1915-001713-00-1512-00-1713-00-1512-001410-00-1512-00-1410-00-|
 --------------------------------------------------------------|
 --------------------------------------------------------------|
 --------------------------------------------------------------|
 --------------------------------------------------------------|
 --------------------------------------------------------------|

[2]  
 
 -----------------------------------|
 -----------------------------------|
 -----------------------------------|
 -----------------------------------|
 -3-3-333-3-3-333-------------------|
 -----------------0-0-000-0-0-000---|

* * *** * * *** * * *** * * ***
0:26
______________________________________________________________
1 / \
 
 10-12-14-15-14-12-10-12-14-17-14-12-10-12-19-14-12-10-12-14-17-14-12|
 --------------------------------------------------------------------|
 --------------------------------------------------------------------|
 --------------------------------------------------------------------|
 --------------------------------------------------------------------|
 --------------------------------------------------------------------|

T T T T
[2]  
 
 -----------------------------------------|
 -----------------------------------------|
 -----------------------------------------|
 -----------------------------------------|
 -----------------------------------------|
 -2-2-222-2-2-222-2-2-222-2-2-222---------|

* * *** * * *** * * *** * * ***
0:28
[1]  
 
 ----------15-15-17-19-19-19-17-15-------------|
 -15-17-19-------------------------19-19-17-15-|
 ----------------------------------------------|
 ----------------------------------------------|
 ----------------------------------------------|
 ----------------------------------------------|

[2]  
 
 -----------------------------------|
 -----------------------------------|
 -----------------------------------|
 -----------------------------------|
 -3-3-333-3-3-333-------------------|
 -----------------------------------|

* * *** * * ***
[1]  
 
 ----------15-15-17-19-19-19-17-15-------------|
 -15-17-19-------------------------19-19-17-15-|
 ----------------------------------------------|
 ----------------------------------------------|
 ----------------------------------------------|
 ----------------------------------------------|

[2]  
 
 --------------------|
 --------------------|
 --------------------|
 --------------------|
 --------------------|
 --0-0-000-0-0-000---|

* * *** * * ***
0:30
[1]  
 
 19171515--------19171515--------19171515--------19171515--------|
 --------19-17-15--------19-17-15--------19-17-15--------19-17-15|
 ----------------------------------------------------------------|
 ----------------------------------------------------------------|
 ----------------------------------------------------------------|
 ----------------------------------------------------------------|

[2]  
 
 -----------------------------------------|
 -----------------------------------------|
 -----------------------------------------|
 -----------------------------------------|
 -----------------------------------------|
 -2-2-222-2-2-222-2-2-222-2-2-222---------|

* * *** * * *** * * *** * * ***
________
[1] [)()()(] [)] [(]  
 
 -----17------------------------|
 -------------------------------|
 -------------------------------|
 -------------------------------|
 -------------------------------|
 -------------------------------|

[2]  
 
 -----------------------------------|
 -----------------------------------|
 -----------------------------------|
 -----------------------------------|
 -3-3-333-3-3-333-------------------|
 -----------------0-0-000-0-0-000---|

* * *** * * *** * * *** * * ***
0:35
L
 
 -------------------------------------------|
 -------------------------------------------|
 -------------------------------------------|
 -------------------------------------------|
 -8------------------7----------------------|
 -8------------------7----------------------|

| |
R
 
 -------------------------------------------|
 -------------------------------------------|
 -------------____----------------____------|
 ---____-----/ \-----____-----/ \-----|
 --/ \---8-12-8-12--/ \---7-10-7-10---|
 -8-12-8-12-----------7-10-7-10-------------|

[B]  
 
 ----------------------------------------------------------------------|
 -----------------------_----------------------------------------------|
 ----------------------/ \----_-----_----------------------------------|
 ---------------------7-5-0--/ \---/ \---------------------------------|
 ---------------------------8-7-0-5-3-0-------------------8-7---7-5----|
 -000-0-000-0-000-000-------------------000-0-000-0-000-5-----3-----2-3|

*** * *** * *** *** *** * *** * ***
L
 
 -------------------------------------------------------|
 -------------------------------------------------------|
 -------------------------------------------------------|
 -----------------7-5-0------------7777----8888---------|
 -----------------------8-7-0-5-3------8888----10101010-|
 -000-0-000-0-000---------------------------------------|

*** * *** * *** * * * * * * * *
R
 
 -------------------------------------------------------|
 -------------------------------------------------------|
 -------------------------------------------------------|
 -----------------7-5-0---------------------------------|
 -----------------------8-7-0-5-3--88885555101010107777-|
 -000-0-000-0-000---------------------------------------|

*** * *** * *** * * * * * * * *
[B]  
 
 -------------------------------------------|
 -------------------------------------------|
 -------------____----------------____------|
 ---____-----/ \-----____-----/ \-----|
 --/ \---8-12-8-12--/ \---7-10-7-10---|
 -8-12-8-12-----------7-10-7-10-------------|

0:45
[B]  
 
 ----------------------------------------------------------------------|
 -----------------------_----------------------------------------------|
 ----------------------/ \----_-----_----------------------------------|
 ---------------------7-5-0--/ \---/ \---------------------------------|
 ---------------------------8-7-0-5-3-0-------------------8-7---7-5----|
 -000-0-000-0-000-000-------------------000-0-000-0-000-5-----3-----2-3|

*** * *** * *** *** *** * *** * ***
L
 
 -------------------------------------------------------|
 -------------------------------------------------------|
 -------------------------------------------------------|
 -----------------7-5-0------------7777----8888---------|
 -----------------------8-7-0-5-3------8888----10101010-|
 -000-0-000-0-000---------------------------------------|

*** * *** * *** * * * * * * * *
R
 
 -------------------------------------------------------|
 -------------------------------------------------------|
 -------------------------------------------------------|
 -----------------7-5-0---------------------------------|
 -----------------------8-7-0-5-3--88885555101010107777-|
 -000-0-000-0-000---------------------------------------|

*** * *** * *** * * * * * * * *
[B]  
 
 -----------------------------------------------------------------|
 -----------------------------------------------------------------|
 -------------____----------------____----------------____--------|
 ---____-----/ \-----____-----/ \-----____-----/ \-------|
 --/ \---8-12-8-12--/ \---7-10-7-10--/ \---8-12-8-12-7---|
 -8-12-8-12-----------7-10-7-10-----------8-12-8-12-----------7---|

|
0:57
L
 
 ---------------------------------------------------------------|
 ---------------------------------------------------------------|
 ---------------------------------------------------------------|
 -0-------------------------------------------------------------|
 -0-------------------------------------------------------------|
 -0-------------------------------------------------------------|

R
 
 ---------------------------------------------------------------|
 ---------------------------------------------------------------|
 ---------------------------------------------------------------|
 ---------------------------------------------------------------|
 -0000---0000---00------------0000---0000---00------------------|
 -0000---0000---00------------0000---0000---00------------------|

**** **** ** **** **** **
[B]  
 
 ----------------------------------------------------------|
 ----------------------------------------------------------|
 ----------------------------------------------------------|
 ----------------------------------------------------------|
 -0000---0000---00---0000---0000---00---0000---0000---00---|
 -0000---0000---00---0000---0000---00---0000---0000---00---|

**** **** ** **** **** ** **** **** **
 
 -------------------------------------------|
 -------------------------------------------|
 -------------____----------------____------|
 ---____-----/ \-----____-----/ \-----|
 --/ \---8-12-8-12--/ \---7-10-7-10---|
 -8-12-8-12-----------7-10-7-10-------------|
 ------------------------------------------------------------------------|
 ------------------------------------------------------------------------|
 ------------------------------------------------------------------------|
 ------------------------------------------------------------------------|
 -0000---0000---00---0-00---0-00-00---0000---0000---00---0-00---0-00-00--|
 -0000---0000---00---0-00---0-00-00---0000---0000---00---0-00---0-00-00--|

**** **** ** * ** * ** ** **** **** ** * ** * ** **
/\ /\
 
 ----------------------------------------------------121512------121512---|
 ---------------------------------------------------13----13----13-----13-|
 --------------------------------------------------12------12--12-------12|
 -------------------------------------------------14----------14----------|
 0000---0000---00---0-00---0-00-00---0000---0000-15----------15-----------|
 0000---0000---00---0-00---0-00-00---0000---0000--------------------------|

**** **** ** * ** * ** ** **** ****
1:24
 
 ---------------------------------------------------|
 ---------------------------------------------------|
 ---------------------------------------------------|
 ---------------------------------------------------|
 -00000000-0-0-0---0-00---0-00-00---00000000-0-0-0--|
 -00000000-0-0-0---0-00---0-00-00---00000000-0-0-0--|

******** * * * * ** * ** ** ******** * * *
 
 -------------------------------------------|
 -------------------------------------------|
 -------------____----------------____------|
 ---____-----/ \-----____-----/ \-----|
 --/ \---8-12-8-12--/ \---7-10-7-10---|
 -8-12-8-12-----------7-10-7-10-------------|

/\ /\
 
 -------------------------------------------------------121512------121512--|
 ------------------------------------------------------13----13----13----13-|
 -----------------------------------------------------12------12--12------12|
 ----------------------------------------------------14----------14---------|
 -00000000-0-0-0---0-00---0-00-00---00000000-0-0-0--15----------15----------|
 -00000000-0-0-0---0-00---0-00-00---00000000-0-0-0--------------------------|

******** * * * * ** * ** ** ******** * * *
1:38
L
 
 -----------------------------------------------------------------|
 -----------------------------------------------------------------|
 -----------------------------------------------------------------|
 ---------3-7---5-----------7---3---------------------------------|
 -0-------5-8---7-----------8---5-------------------8-7---7-5-----|
 -0-0-0-0-----0---0-0-0-0-0---0---0-0-0-0-000-0-0-5-----3-----2-3-|

* * * * * * * * * * * * * * *** * *
R
 
 ------------------------------------------------------------------|
 ------------------------------------------------------------------|
 ------------------------------------------------------------------|
 -0----------------------------------------------------------------|
 -0--------------------------------------------------8-7---7-5-----|
 -0------------------------------------------------5-----3-----2-3-|
 -----------------------------------------------------------------|
 -----------------------------------------------------------------|
 -----------------------------------------------------------------|
 ---------3-7---5-----------7---3---------------------------------|
 -0-------5-8---7-----------8---5-------------------8-7---7-5-----|
 -0-0-0-0-----0---0-0-0-0-0---0---0-0-0-0-000-0-0-5-----3-----2-3-|

* * * * * * * * * * * * * * *** * *
 
 -----------------------------------------------------------------|
 -----------------------------------------------------------------|
 -----------------------------------------------------------------|
 ---------3-7---5-----------7---3---------------------------------|
 -0-------5-8---7-----------8---5-------------------8-7---7-5-----|
 -0-0-0-0-----0---0-0-0-0-0---0---0-0-0-0-000-0-0-5-----3-----2-3-|

* * * * * * * * * * * * * * *** * *
 
 -----------------------------------------------------------------|
 -----------------------------------------------------------------|
 -----------------------------------------------------------------|
 ---------3-7---5-----------7---3---------------------------------|
 -0-------5-8---7-----------8---5-------------------8-7---7-5-----|
 -0-0-0-0-----0---0-0-0-0-0---0---0-0-0-0-000-0-0-5-----3-----2-3-|

* * * * * * * * * * * * * * *** * *
2:01
[B]  
 
 --------------------------------------------------------------------|
 --------------------------------------------------------------------|
 -9-9-9-7-7-7-7-7-101010-9-9-9-9-9------------------1212121414141414-|
 -7-7-7-7-7-7-7-7--9-9-9-9-9-9-9-9-1010101212121212-1212121212121212-|
 -5-5-5-5-5-5-5-5--7-7-7-7-7-7-7-7--8-8-8-8-8-8-8-8-1010101010101010-|
 --------------------------------------------------------------------|
 --------------------------------------------------------------------|
 --------------------------------------------------------------------|
 -9-9-9-7-7-7-7-7-101010-9-9-9-9-9------------------1212121414141414-|
 -7-7-7-7-7-7-7-7--9-9-9-9-9-9-9-9-1010101212121212-1212121212121212-|
 -5-5-5-5-5-5-5-5--7-7-7-7-7-7-7-7--8-8-8-8-8-8-8-8-1010101010101010-|
 --------------------------------------------------------------------|
 ----------------------|
 ----------------------|
 ----------------------|
 ----------------------|
 -0000000---0000000----|
 -0000000---0000000----|

******* *******
 
 --------------------------------------------------------------------|
 --------------------------------------------------------------------|
 -9-9-9-7-7-7-7-7-101010-9-9-9-9-9------------------1212121414141414-|
 -7-7-7-7-7-7-7-7--9-9-9-9-9-9-9-9-1010101212121212-1212121212121212-|
 -5-5-5-5-5-5-5-5--7-7-7-7-7-7-7-7--8-8-8-8-8-8-8-8-1010101010101010-|
 --------------------------------------------------------------------|

* * * * * * * * * * * * * * * * * * * *
 
 --------------------------------------------------------------------|
 --------------------------------------------------------------------|
 -9-9-9-7-7-7-7-7-101010-9-9-9-9-9------------------1212121414141414-|
 -7-7-7-7-7-7-7-7--9-9-9-9-9-9-9-9-1010101212121212-1212121212121212-|
 -5-5-5-5-5-5-5-5--7-7-7-7-7-7-7-7--8-8-8-8-8-8-8-8-1010101010101010-|
 --------------------------------------------------------------------|

* * * * * * * * * * * * * * * * *
2:29
SOLO
 
 ---------------------------)~~---/\---------------)---------10-12-13-15~|
 -------------------------13----101110--10-------10---------11-----------|
 --9-10-10/14-\/12-10--10-------------12--12-10--10--------12------------|
 12------------------14-------------------------12---12-12~--------------|
 ------------------------------------------------------------------------|
 ------------------------------------------------------------------------|

| | |
RYTHM
 
 --------------------------------------------------------------------|
 --------------------------------------------------------------------|
 -9-9-9-7-7-7-7-7-101010-9-9-9-9-9------------------1212121414141414-|
 -7-7-7-7-7-7-7-7--9-9-9-9-9-9-9-9-1010101212121212-1212121212121212-|
 -5-5-5-5-5-5-5-5--7-7-7-7-7-7-7-7--8-8-8-8-8-8-8-8-1010101010101010-|
 --------------------------------------------------------------------|

2:36
SOLO
 
 ------------------------------------------------------------------|
 15101310--1015101310--1015101310-17131513--1317131513--1317131513-|
 --------13----------13-------------------14----------14-----------|
 ------------------------------------------------------------------|
 ------------------------------------------------------------------|
 ------------------------------------------------------------------|

2:39
SOLO CONT.
 
 13-12-10-10-12-10-13-12-10-10-12-10-13-15-13-12-13-12-13-15-13-12-13-12-|
 ------------------------------------------------------------------------|
 ------------------------------------------------------------------------|
 ------------------------------------------------------------------------|
 ------------------------------------------------------------------------|
 ------------------------------------------------------------------------|

2:40
SOLO CONT.
 
 15-17-15-13-15-13-15-17-15-13-15-13-17-20-17-15-17-15-17-20-17-15-17-15-|
 ------------------------------------------------------------------------|
 ------------------------------------------------------------------------|
 ------------------------------------------------------------------------|
 ------------------------------------------------------------------------|
 ------------------------------------------------------------------------|

RYTHM
 
 --------------------------------------------------------------------|
 --------------------------------------------------------------------|
 -9-9-9-7-7-7-7-7-101010-9-9-9-9-9------------------1212121414141414-|
 -7-7-7-7-7-7-7-7--9-9-9-9-9-9-9-9-1010101212121212-1212121212121212-|
 -5-5-5-5-5-5-5-5--7-7-7-7-7-7-7-7--8-8-8-8-8-8-8-8-1010101010101010-|
 --------------------------------------------------------------------|

SOLO
)~~ ~~~~
 
 -20---(20)--|
 ------------|
 ------------|
 ------------|
 ------------|
 ------------|

2:42
CUT INTO PREVIOUS RIFF
[1]  
 
 ---------------------------------------------------------------------|
 ---------------------------------------------------------------------|
 14----14-10----10-12----12-10----10-10----9----14----14-10----10-12~-|
 ---12-------12-------12-------12-------10---10----12-------12--------|
 ---------------------------------------------------------------------|
 ---------------------------------------------------------------------|

[2]  
 
 ------------------------------------------------------------------|
 ------------------------------------------------------------------|
 ------------------------------------------------------------------|
 ------------------------------------------------------------------|
 -000000---000000--------------------------------000000---000000---|
 -000000---000000--------------------------------000000---000000---|

****** ****** ****** ******
[B]  
 
 --------------------|
 --------------------|
 --------------------|
 --------------------|
 ----8~---7~---------|
 -5-----3-----2-3----|

[1]  
 
 ---------------------------------------------------------------------|
 ---------------------------------------------------------------------|
 14----14-10----10-12----12-10----10-10----9----14----14-10----10-12\-|
 ---12-------12-------12-------12-------10---10----12-------12--------|
 ---------------------------------------------------------------------|
 ---------------------------------------------------------------------|

[2]  
 
 ------------------------------------------------------------------|
 ------------------------------------------------------------------|
 ------------------------------------------------------------------|
 ------------------------------------------------------------------|
 -000000---000000--------------------------------000000---000000---|
 -000000---000000--------------------------------000000---000000---|

****** ****** ****** ******
[B]  
 
 --------------------|
 --------------------|
 --------------------|
 --------------------|
 ----8~---7~---------|
 -5-----3-----2-3----|
 ------------------------------------------------------------------|
 ------------------------------------------------------------------|
 ------------------------------------------------------------------|
 --------------------------------------------------00--00--00--00--|
 -000000---000000----------------000000---000000---00--00--00--00--|
 -000000---000000----------------000000---000000---00--00--00--00--|

****** ****** ****** ****** ** ** ** **
 
 ----------------------------------------------------------------------|
 ----------------------------------------------------------------------|
 ----------------------------------------------------------------------|
 --------------------------------------------------1-1--1-1--1-1--1-1--|
 -000000---000000----------------000000---000000---0-0--0-0--0-0--0-0--|
 -000000---000000----------------000000---000000---1-1--1-1--1-1--1-1--|

****** ****** ****** ****** * * * * * * * *
 
 ----------------------------------------------------------------------|
 -----------------------_----------------------------------------------|
 ----------------------/ \----_-----_----------------------------------|
 ---------------------7-5-0--/ \---/ \---------------------------------|
 ---------------------------8-7-0-5-3-0-------------------8-7---7-5----|
 -000-0-000-0-000-000-------------------000-0-000-0-000-5-----3-----2-3|

*** * *** * *** *** *** * *** * ***
L
 
 -------------------------------------------------------|
 -------------------------------------------------------|
 -------------------------------------------------------|
 -----------------7-5-0------------7777----8888---------|
 -----------------------8-7-0-5-3------8888----10101010-|
 -000-0-000-0-000---------------------------------------|

*** * *** * *** * * * * * * * *
R
 
 -------------------------------------------------------|
 -------------------------------------------------------|
 -------------------------------------------------------|
 -----------------7-5-0---------------------------------|
 -----------------------8-7-0-5-3--88885555101010107777-|
 -000-0-000-0-000---------------------------------------|

*** * *** * *** * * * * * * * *
[B]  
 
 -------------------------------------------|
 -------------------------------------------|
 -------------____----------------____------|
 ---____-----/ \-----____-----/ \-----|
 --/ \---8-12-8-12--/ \---7-10-7-10---|
 -8-12-8-12-----------7-10-7-10-------------|

[B]  
 
 ----------------------------------------------------------------------|
 -----------------------_----------------------------------------------|
 ----------------------/ \----_-----_----------------------------------|
 ---------------------7-5-0--/ \---/ \---------------------------------|
 ---------------------------8-7-0-5-3-0-------------------8-7---7-5----|
 -000-0-000-0-000-000-------------------000-0-000-0-000-5-----3-----2-3|

*** * *** * *** *** *** * *** * ***
L
 
 -------------------------------------------------------|
 -------------------------------------------------------|
 -------------------------------------------------------|
 -----------------7-5-0------------7777----8888---------|
 -----------------------8-7-0-5-3------8888----10101010-|
 -000-0-000-0-000---------------------------------------|

*** * *** * *** * * * * * * * *
R
 
 -------------------------------------------------------|
 -------------------------------------------------------|
 -------------------------------------------------------|
 -----------------7-5-0---------------------------------|
 -----------------------8-7-0-5-3--88885555101010107777-|
 -000-0-000-0-000---------------------------------------|

*** * *** * *** * * * * * * * *
[B]  
 
 -------------------------------------------|
 -------------------------------------------|
 -------------____----------------____------|
 ---____-----/ \-----____-----/ \-----|
 --/ \---8-12-8-12--/ \---7-10-7-10---|
 -8-12-8-12-----------7-10-7-10-------------|
 -----121512-------121512--------------------|
 ----13----13-----13----13-------------------|
 ---12------12---12------12------------------|
 --14-----------14------------12-------------|
 -15-----------15-------------12-------------|
 -----------------------------12--\----------|


Important: The song above is NOT stored on the Chordie server. The original song is hosted at www.guitaretab.com. Chordie works as a search engine and provides on-the-fly formatting. Chordie does not index songs against artists'/composers' will. To remove this song please click here.

Text color:
Chord color:
Chord grids: 
Font size:    
Page size: 

B
Rate #4 of 4 versions

Jango Player

Login - add to songbook

SHARE PAGE  




You need to log in to post comments