Guitar Tabs, Chords and Lyrics
Server problems seems to be fixed. Chordie has been experiencing problems with songs disappearing. These issues now seems to be fixed, but still verifying the fix. If you find anything strange, please email admin@chordie.com.


Horizons  Parkway Drive

[B-F#-B-E-G#-C#]  
TABBED BY andherembrace
INTRO
FINGER PICKED
0:07
[1]  
 
 -7-----7------10---2-----2------5---3-----3------7---5-----7----------|
 ---0-----0-----------0-----0----------0-----0----------0-----0----7---|
 -----0-----------------0----------------0----------------0-----0------|
 ----------------------------------------------------------------------|
 -7-----7------10---2-----2------5---3-----3------7---5-----5------5---|
 ----------------------------------------------------------------------|

| | |
 
 -7-----7------10---2-----2------5---3-----3------7---5-----7----------|
 ---0-----0-----------0-----0----------0-----0----------0-----0----7---|
 -----0-----------------0----------------0----------------0-----0------|
 ----------------------------------------------------------------------|
 -7-----7------10---2-----2------5---3-----3------7---5-----5------5---|
 ----------------------------------------------------------------------|

| | |
0:22
[1]  
 
 -7-----7------10---2-----2------5---3-----3------7---5-----7----------|
 ---0-----0-----------0-----0----------0-----0----------0-----0----7---|
 -----0-----------------0----------------0----------------0-----0------|
 ----------------------------------------------------------------------|
 -7-----7------10---2-----2------5---3-----3------7---5-----5------5---|
 ----------------------------------------------------------------------|

| | |
[2]  
 
 -----------------------------------------------------------------|
 -----------------------------------------------------------------|
 -----------------------------------------------------------------|
 -----------------------------------------------------------------|
 -2---------------------------------------------------------------|
 -2---------------------------------------------------------------|

[1]  
 
 -7-----7------10---2-----2------5---3-----3------7---5-----7----------|
 ---0-----0-----------0-----0----------0-----0----------0-----0----7---|
 -----0-----------------0----------------0----------------0-----0------|
 ----------------------------------------------------------------------|
 -7-----7------10---2-----2------5---3-----3------7---5-----5------5---|
 ----------------------------------------------------------------------|

| | |
[2]  
 
 -----------------------------------------------------------------|
 -----------------------------------------------------------------|
 -----------------------------------------------------------------|
 --------------------------------------------------PS-------------|
 -2--------------------------------------------------\------------|
 -2---------------------------------------------------------------|

[1]  
 
 -7-----7------10---2-----2------5---3-----3------7---5-----7----------|
 ---0-----0-----------0-----0----------0-----0----------0-----0----7---|
 -----0-----------------0----------------0----------------0-----0------|
 ----------------------------------------------------------------------|
 -7-----7------10---2-----2------5---3-----3------7---5-----5------5---|
 ----------------------------------------------------------------------|

| | |
[2]  
 
 ----------------------------------------------------------------------|
 ----------------------------------------------------------------------|
 ----------------------------------------------------------------------|
 ------------------4-----------------5-----------------7---------------|
 -2----------------2-----------------3-----------------5---------------|
 -2--------------------------------------------------------------------|

[1]  
 
 -7-----7------10---2-----2------5---3-----3------7---5-----7----------|
 ---0-----0-----------0-----0----------0-----0----------0-----0----7---|
 -----0-----------------0----------------0----------------0-----0------|
 ----------------------------------------------------------------------|
 -7-----7------10---2-----2------5---3-----3------7---5-----5------5---|
 ----------------------------------------------------------------------|

| | |
[2]  
 
 ----------------------------------------------------------------------|
 ----------------------------------------------------------------------|
 ----------------------------------------------------------------------|
 ------------------4-----------------5-----------------7---------------|
 -2----------------2-----------------3-----------------5---------------|
 -2--------------------------------------------------------------------|

0:52
[1]  
 
 -------0-----2-----0-----2---0----------------------------7---5---|
 -3-------3-----3-----3-----3------5-----7-----8-----7-------7-----|
 ---0-------0-----0-----0------------7-----7-----7-----7-----------|
 -----0--------------------------------5-----5-----5-----7---------|
 -3-----3-----3-----3-----3---3----5-----5-----5-----5-----5---5---|
 ------------------------------------------------------------------|

[2]  
 
 -----------------------------------------------------------------|
 -----------------------------------------------------------------|
 -----------------------------------------------------------------|
 -5-5-5-5-5-5-5-5-5-5-5-5-5-5-5-5-7-7-7-7-7-7-7-7-7-7-7-7-7-7-7-7-|
 -3-3-3-3-3-3-3-3-3-3-3-3-3-3-3-3-5-5-5-5-5-5-5-5-5-5-5-5-5-5-5-5-|
 -----------------------------------------------------------------|

* * * * * * * * * * * * * * * * * * * * * * * * * * * * * * * *
[1]  
 
 -------0-----2-----0-----2---0----------------------------7---5-----|
 -3-------3-----3-----3-----3------5-----7-----8---8---7-----7---7-7-|
 ---0-------0-----0-----0------------7-----7-----7---7---7-----------|
 -----0--------------------------------5-----5-----------------------|
 -3-----3-----3-----3-----3---3----5-----5-----5-------------------7-|
 --------------------------------------------------------------------|

[2]  
 
 -------------------------------------------------------------------|
 -------------------------------------------------------------------|
 -------------------------------------------------------------------|
 -5-5-5-5-5-5-5-5-5-5-5-5-5-5-5-5-7-7-7-7-7-7-7-7----------------2--|
 -3-3-3-3-3-3-3-3-3-3-3-3-3-3-3-3-5-5-5-5-5-5-5-5--5------4------2--|
 --------------------------------------------------5------4------2--|

* * * * * * * * * * * * * * * * * * * * * * * *
1:11
L
 
 ---------------------------------------------------|
 ---------------------------------------------------|
 ---------------------------------------------------|
 ---------------------------------------------------|
 ---------------------------------------------------|
 -0-0-0---------------------------------------------|

* * *
R
 
 ---------------------------------------------------|
 ---------------------------------------------------|
 ---------------------------------------------------|
 ---------------------------------------------------|
 -------5-7-8-------7-8-10-------3-----8-----7-5-3--|
 -0-0-0-------0-0-0--------0-0-0---0-0---0-0--------|

* * * * * * * * * * * * *
L
 
 ---------------------------------------------------|
 ---------------------------------------------------|
 ---------------------------------------------------|
 ---------------------------------------------------|
 --------------------------------3-----8-----7-5-3--|
 -0-0-0------0-0-0---------0-0-0---0-0---0-0--------|

* * * * * * * * * * * * *
R
 
 ---------------------------------------------------|
 ---------------------------------------------------|
 ---------------------------------------------------|
 ---------------------------------------------------|
 -------5-7-8-------7-8-10-------3-----8-----7-5-3--|
 -0-0-0-------0-0-0--------0-0-0---0-0---0-0--------|

* * * * * * * * * * * * *
1:17
[B]  
 
 --------------------------------------------------------|
 --------------------------------------------------------|
 --------------------------------------------------------|
 --------------------------------------------------------|
 --------7-8-10-------8-10-12-------12-----10-----8-7-5--|
 -5-5-5---------7-7-7---------8-888----8-8----8-8--------|

*** * * * *
 
 --------------------------------------------------------|
 --------------------------------------------------------|
 --------------------------------------------------------|
 --------------------------------------------------------|
 --------7-8-10-------8-10-12-------12-----10-----8-7-5--|
 -5-5-5---------7-7-7---------8-888----8-8----8-8--------|

*** * * * *
 
 --------------------------------------------------------|
 --------------------------------------------------------|
 --------------------------------------------------------|
 --------------------------------------------------------|
 --------7-8-10-------8-10-12-------12-----10-----8-7-5--|
 -5-5-5---------7-7-7---------8-888----8-8----8-8--------|

*** * * * *
 
 --------------------------------------------------------|
 --------------------------------------------------------|
 --------------------------------------------------------|
 --------------------------------------------------------|
 --------7-8-10-------8-10-12-------12-----10-----8-7-5--|
 -5-5-5---------7-7-7---------8-888----8-8----8-8--------|

*** * * * *
1:30
L
 
 ---------------------------------------------------|
 ---------------------------------------------------|
 ---------------------------------------------------|
 ---------------------------------------------------|
 --------------------------------3-----8-----7-5-3--|
 -0-0-0------0-0-0---------0-0-0---0-0---0-0--------|

* * * * * * * * * * * * *
R
 
 ---------------------------------------------------|
 ---------------------------------------------------|
 ---------------------------------------------------|
 ---------------------------------------------------|
 -------5-7-8-------7-8-10-------3-----8-----7-5-3--|
 -0-0-0-------0-0-0--------0-0-0---0-0---0-0--------|

* * * * * * * * * * * * *
L
 
 ---------------------------------------------------|
 ---------------------------------------------------|
 ---------------------------------------------------|
 ---------------------------------------------------|
 --------------------------------3-----8-----7-5-3--|
 -0-0-0------0-0-0---------0-0-0---0-0---0-0--------|

* * * * * * * * * * * * *
R
 
 ---------------------------------------------------|
 ---------------------------------------------------|
 ---------------------------------------------------|
 ---------------------------------------------------|
 -------5-7-8-------7-8-10-------3-----8-----7-5-3--|
 -0-0-0-------0-0-0--------0-0-0---0-0---0-0--------|

* * * * * * * * * * * * *
1:37
L
 
 --------------------------------------------------------|
 --------------------------------------------------------|
 --------------------------------------------------------|
 ------------------------------------10----8-------------|
 --------7-8-10-------8-10-12---------------------12-10-8|
 -5-5-5---------7-7-7---------8-888----8-8----8-8--------|

*** * * * *
R
 
 --------------------------------------------------------|
 --------------------------------------------------------|
 --------------------------------------------------------|
 --------5-7-8---------7-8-10----------------------------|
 -----------------------------------12-----10-----8-7-5--|
 -5-5-5---------7-7-7---------8-888----8-8----8-8--------|

*** * * * *
L
 
 --------------------------------------------------------|
 --------------------------------------------------------|
 --------------------------------------------------------|
 ------------------------------------10----8-------------|
 --------7-8-10-------8-10-12---------------------12-10-8|
 -5-5-5---------7-7-7---------8-888----8-8----8-8--------|

*** * * * *
R
 
 --------------------------------------------------------|
 --------------------------------------------------------|
 --------------------------------------------------------|
 --------5-7-8---------7-8-10----------------------------|
 -----------------------------------12-----10-----8-7-5--|
 -5-5-5---------7-7-7---------8-888----8-8----8-8--------|

*** * * * *
1:44
[B]  
 
 ---------------------------------------------------------------------|
 -----------------------------------------------------__--------------|
 ----------------------------------------------------/ \--------__---|
 ---------------------------------------------------3--2-3------/ \--|
 -0--0---00-00---00-00---00-00---0--0---00-00------------------3--2-3-|
 -0--0---00-00---00-00---00-00---0--0---00-00---000--------000--------|

* * ** ** ** ** ** ** * * ** ** *** ***
 
 ---------------------------------------------------------------------|
 -----------------------------------------------------__--------------|
 ----------------------------------------------------/ \--------__---|
 ---------------------------------------------------3--2-3------/ \--|
 -0--0---00-00---00-00---00-00---0--0---00-00------------------3--2-3-|
 -0--0---00-00---00-00---00-00---0--0---00-00---000--------000--------|

* * ** ** ** ** ** ** * * ** ** *** ***
 
 ---------------------------------------------------------------------|
 -----------------------------------------------------__--------------|
 ----------------------------------------------------/ \--------__---|
 ---------------------------------------------------3--2-3------/ \--|
 -0--0---00-00---00-00---00-00---0--0---00-00------------------3--2-3-|
 -0--0---00-00---00-00---00-00---0--0---00-00---000--------000--------|

* * ** ** ** ** ** ** * * ** ** *** ***
 
 ------------------------------------------------|
 ------------------------------------------------|
 ------------------------------------------------|
 ------------------------------------------------|
 -0--0---00-00---00-00---00-00---0--0---00-00----|
 -0--0---00-00---00-00---00-00---0--0---00-00----|

* * ** ** ** ** ** ** * * ** **
L
 
 -----------------------------------|
 -----------------------------------|
 -----------------------------------|
 -----------------------------------|
 -8-8-8-7-7-7-3-3-3-----------------|
 -------------------5-5-5-----------|

R
 
 -----------------------------------|
 -----------------------------------|
 -----------------------------------|
 -----------------------------------|
 12-12-12-10-10-10------------------|
 ------------------10-10-10-5-5-5---|

2;11
[B]  
 
 ---------------------------------------------------------------------------|
 ---------------------------------------------------------------------------|
 ----------------------------------------------------_----------------------|
 ---------------------------------------------------/ \--------------^------|
 -----7----8----7---8-----7----8----7---8-----8----8-7-5-7~----5----5-3---3~|
 -888---88---88---8---555---55---55---5---000---00---------333---33-----3---|

*** ** ** * *** ** ** * *** ** *** ** *
 
 ---------------------------------------------------------------------------|
 ---------------------------------------------------------------------------|
 ----------------------------------------------------_----------------------|
 ---------------------------------------------------/ \--------------^------|
 -----7----8----7---8-----7----8----7---8-----8----8-7-5-7~----5----5-3---3~|
 -888---88---88---8---555---55---55---5---000---00---------333---33-----3---|

*** ** ** * *** ** ** * *** ** *** ** *
2:24
L
 
 ----------------------------------------------------------------------------|
 ----------------------------------------------------_-----------------------|
 ---------------------------------------------------/ \---------------^------|
 -----5----7----5---7-----5----7----5---7-----7----7-5-3-5~-----3----3-2---2~|
 ----------------------------------------------------------------------------|
 -888---88---88---8---555---55---55---5---000---00----------333---33-----3---|

*** ** ** * *** ** ** * *** ** *** ** *
R
 
 ---------------------------------------------------------------------------|
 ---------------------------------------------------------------------------|
 -----------------------------------------------------_---------------------|
 ----------------------------------------------------/ \-------------^------|
 -----7----8----7---8-----7----8----7---8-----8----8-7-5-7~----5----5-3---3~|
 -888---88---88---8---555---55---55---5---000---00---------333---33-----3---|

*** ** ** * *** ** ** * *** ** *** ** *
L
 
 ----------------------------------------------------------------------------|
 ----------------------------------------------------_-----------------------|
 ---------------------------------------------------/ \---------------^------|
 -----5----7----5---7-----5----7----5---7-----7----7-5-3-5~-----3----3-2---2~|
 ----------------------------------------------------------------------------|
 -888---88---88---8---555---55---55---5---000---00----------333---33-----3---|

*** ** ** * *** ** ** * *** ** *** ** *
R
 
 ----------------------------------------------------------------------------|
 ----------------------------------------------------------------------------|
 ----------------------------------------------------_-----------------------|
 ---------------------------------------------------/ \---------------^------|
 -----7----8----7---8-----7----8----7---8-----8----8-7-5-7~-----5----5-3---3~|
 -888---88---88---8---555---55---55---5---000---00----------333---33-----3---|

*** ** ** * *** ** ** * *** ** *** ** *
[B]  
 
 ---------------------------------------------------------------|
 ---------------------------------------------------------------|
 -2-------------------------------------------------------------|
 -0-------------------------------------------------------------|
 -0-------------------------------------------------------------|
 -0-------------------------------------------------------------|

2:40
L
 
 ---------------------------------------------------|
 ---------------------------------------------------|
 ---------------------------------------------------|
 ---------------------------------------------------|
 --------------------------------3-----8-----7-5-3--|
 -0-0-0------0-0-0---------0-0-0---0-0---0-0--------|

* * * * * * * * * * * * *
R
 
 ---------------------------------------------------|
 ---------------------------------------------------|
 ---------------------------------------------------|
 ---------------------------------------------------|
 -------5-7-8-------7-8-10-------3-----8-----7-5-3--|
 -0-0-0-------0-0-0--------0-0-0---0-0---0-0--------|

* * * * * * * * * * * * *
[B]  
 
 --------------------------------------------------------|
 --------------------------------------------------------|
 --------------------------------------------------------|
 --------------------------------------------------------|
 --------7-8-10-------8-10-12-------12-----10-----8-7-5--|
 -5-5-5---------7-7-7---------8-888----8-8----8-8--------|

*** * * * *
 
 --------------------------------------------------------|
 --------------------------------------------------------|
 --------------------------------------------------------|
 --------------------------------------------------------|
 --------7-8-10-------8-10-12-------12-----10-----8-7-5--|
 -5-5-5---------7-7-7---------8-888----8-8----8-8--------|

*** * * * *
 
 --------------------------------------------------------|
 --------------------------------------------------------|
 --------------------------------------------------------|
 --------------------------------------------------------|
 --------7-8-10-------8-10-12-------12-----10-----8-7-5--|
 -5-5-5---------7-7-7---------8-888----8-8----8-8--------|

*** * * * *
 
 --------------------------------------------------------|
 --------------------------------------------------------|
 --------------------------------------------------------|
 --------------------------------------------------------|
 --------7-8-10-------8-10-12-------12-----10-----8-7-5--|
 -5-5-5---------7-7-7---------8-888----8-8----8-8--------|

*** * * * *
2:57
[B]  
 
 ----------------------------------------------|
 ----------------------------------------------|
 -2----------------------------7---------------|
 -0-----------------------0----7---0-----------|
 -0-----------------------0----5\--0-----------|
 -0-----------------------0--------0----0-0-0--|

* * *
 
 --------------------------------------------------|
 --------------------------------------------------|
 --------------------------------------------------|
 --------------------------------------------------|
 --------------------------------------------------|
 -000-0-0-0-0-000-0-0-0-0-000-0-000-0-000-0-0-0-0--|

*** * * * * *** * * * * *** * *** * *** * * * *
 
 --------------------------------------------------|
 --------------------------------------------------|
 --------------------------------------------------|
 --------------------------------------------------|
 --------------------------------------------------|
 -000-0-0-0-0-000-0-0-0-0-000-0-000-0-000-0-0-0-0--|

*** * * * * *** * * * * *** * *** * *** * * * *
 
 --------------------------------------------------|
 --------------------------------------------------|
 --------------------------------------------------|
 --------------------------------------------------|
 --------------------------------------------------|
 -000-0-0-0-0-000-0-0-0-0-000-0-000-0-000-0-0-0-0--|

*** * * * * *** * * * * *** * *** * *** * * * *
 
 --------------------------------------------------|
 --------------------------------------------------|
 --------------------------------------------------|
 --------------------------------------------------|
 --------------------------------------------------|
 -000-0-0-0-0-000-0-0-0-0-000-0-000-0-000-0-0-0-0--|

*** * * * * *** * * * * *** * *** * *** * * * *
3:17
 
 -----------------------------------------|
 -----------------------------------------|
 -----------------------------------------|
 -------0------------0--------------------|
 -------0------------0--------------------|
 -000-0-0------000-0-0------000-0-0-0-0---|

*** * *** * *** * * * *
 
 -----------------------------------------|
 -----------------------------------------|
 -----------------------------------------|
 -------0------------0--------------------|
 -------0------------0--------------------|
 -000-0-0------000-0-0------000-0-0-0-0---|

*** * *** * *** * * * *
 
 -----------------------------------------|
 -----------------------------------------|
 -----------------------------------------|
 -------0------------0--------------------|
 -------0------------0--------------------|
 -000-0-0------000-0-0------000-0-0-0-0---|

*** * *** * *** * * * *
 
 -----------------------------|
 -----------------------------|
 -----------------------------|
 -------0------------0--------|
 -------0------------0--------|
 -000-0-0------0-0-0-0--------|

*** * * * * |
3:29
[1]  
 
 --------------------------------------------------------------|
 --------------------------------------------------------------|
 --------------------------------------------------------------|
 ---___--------------------------___-----------------^---------|
 --/ \--3---------------------/ \--3-----/7--7-7-8-7-5-----|
 -0-3-5-7---7-5--5/7-----------0-3-5-7---7-5-------------------|

[2]  
 
 ---------------------------------------------------------------|
 ---------------------------------------------------------------|
 ---------------------------------------------------------------|
 ------------------7--------------------------10----------9-----|
 ------------------3---------------------------7----------5-----|
 ------------------3---------------------------7----------5-----|

[1]  
 
 --------------------------------------------------------------------|
 --------------------------------------------------------------------|
 ---------------------------------------------------------_----------|
 ---___----------------------)(-------___----------------/ \---------|
 --/ \--3-----------5/7-7-7--------/ \--3-----------5-7-5-3--2~--|
 -0-3-5-7---7-5--5/7----------------0-3-5-7---7-5--5/7---------------|

[2]  
 
 --------------------------------------------------------------------|
 --------------------------------------------------------------------|
 --------------------------------------------------------------------|
 ------------------7---------------------------------10--------9-----|
 ------------------3----------------------------------7--------5-----|
 ------------------3----------------------------------7--------5-----|

[1]  
 
 ---------------------------------------------|
 ---------------------------------------------|
 ---------------------------------------------|
 ---------------___-----------------^---------|
 --------------/ \--3-----/7--7-7-8-7-5-----|
 -7~----------0-3-5-7---7-5-------------------|

[2]  
 
 ----------------------------------------------|
 ----------------------------------------------|
 ----------------------------------------------|
 -7--------------------------10----------9-----|
 -3---------------------------7----------5-----|
 -3---------------------------7----------5-----|

[1]  
 
 --------------------------------------------------------------------|
 --------------------------------------------------------------------|
 ---------------------------------------------------------_----------|
 ---___----------------------)(-------___----------------/ \---------|
 --/ \--3-----------5/7-7-7--------/ \--3-----------5-7-5-3--2~--|
 -0-3-5-7---7-5--5/7----------------0-3-5-7---7-5--5/7---------------|

[2]  
 
 --------------------------------------------------------------------|
 --------------------------------------------------------------------|
 --------------------------------------------------------------------|
 ------------------7---------------------------------10--------9-----|
 ------------------3----------------------------------7--------5-----|
 ------------------3----------------------------------7--------5-----|

3:55
[1]  
 
 ------------------------------------------------------|
 ------------------------------------------------------|
 -----10-14-14-14--16-17-------10-14-14-14--14-12-12---|
 -3----X--X--X--X---X--X---7----X--X--X--X---X--X--X---|
 -3---10/12-12-12--14-15---7---10/12-12-12--12\10-10---|
 -3------------------------7---------------------------|

[2]  
 
 ------------------------------------------------------|
 ------------------------------------------------------|
 ------------------------------------------------------|
 -3--------------------5--7------------------5---------|
 -3--------------------5--7------------------5---------|
 -3--------------------5--7------------------5---------|

1 ____
 
 ----------------------------------------------/ \--------___---|
 ----------------------------------------8-10-8-10-8-0------/ \--|
 -----10-14-14-14--16-17-------10-14-14----------------7-9-7-9-7-0-|
 -3----X--X--X--X---X--X---7----X--X--X----------------------------|
 -3---10/12-12-12--14-15---7---10/12-12----------------------------|
 -3------------------------7---------------------------------------|

2 ___
 
 ---------------------------------------------/ \---------___----|
 ----------------------------------------5-6-5-6-5-0-------/ \---|
 -----------------------------------------------------7-5-4-5-4-0--|
 -3--------------------5--7----------------------------------------|
 -3--------------------5--7----------------------------------------|
 -3--------------------5--7----------------------------------------|

[1]  
 
 ------------------------------------------------------|
 ------------------------------------------------------|
 -----10-14-14-14--16-17-------10-14-14-14--14-12-12---|
 -3----X--X--X--X---X--X---7----X--X--X--X---X--X--X---|
 -3---10/12-12-12--14-15---7---10/12-12-12--12\10-10---|
 -3------------------------7---------------------------|

[2]  
 
 ------------------------------------------------------|
 ------------------------------------------------------|
 ------------------------------------------------------|
 -3--------------------5--7------------------5---------|
 -3--------------------5--7------------------5---------|
 -3--------------------5--7------------------5---------|

1 ____
 
 ----------------------------------------------/ \--------___---|
 ----------------------------------------8-10-8-10-8-0------/ \--|
 -----10-14-14-14--16-17-------10-14-14----------------7-9-7-9-7-0-|
 -3----X--X--X--X---X--X---7----X--X--X----------------------------|
 -3---10/12-12-12--14-15---7---10/12-12----------------------------|
 -3------------------------7---------------------------------------|

2 ___
 
 ---------------------------------------------/ \---------___----|
 ----------------------------------------5-6-5-6-5-0-------/ \---|
 -----------------------------------------------------7-5-4-5-4-0--|
 -3--------------------5--7----------------------------------------|
 -3--------------------5--7----------------------------------------|
 -3--------------------5--7----------------------------------------|

4:20
__ __ __ __
1 / \ / \ / \ / \
 
 ----17-19-17--------17-19-17--------17-19-17--------17-19-17-----|
 ---17------17------17------17------17------17------17------17----|
 --17--------17----17--------17----17--------17----17--------17---|
 -19----------19--19----------19--19----------19--19----------19--|
 -----------------------------------------------------------------|
 -----------------------------------------------------------------|

[2]  
 
 -----------------------------------------------------------------|
 -----------------------------------------------------------------|
 -----------------------------------------------------------------|
 -3------------------------------------------------5--------------|
 -3------------------------------------------------5--------------|
 -3------------------------------------------------5--------------|

__ __ __ __
1 / \ / \ / \ / \
 
 ----17-20-17--------17-20-17--------17-20-17--------17-22-17-----|
 ---17------17------17------17------17------17------17------17----|
 --17--------17----17--------17----17--------17----17--------17---|
 -19----------19--19----------19--19----------19--19----------19--|
 -----------------------------------------------------------------|
 -----------------------------------------------------------------|

[2]  
 
 -----------------------------------------------------------------|
 -----------------------------------------------------------------|
 -----------------------------------------------------------------|
 -7------------------------------------------------5--------------|
 -7------------------------------------------------5--------------|
 -7------------------------------------------------5--------------|

__ __ __ __
1 / \ / \ / \ / \
 
 ----17-19-17--------17-19-17--------17-19-17--------17-19-17-----|
 ---17------17------17------17------17------17------17------17----|
 --17--------17----17--------17----17--------17----17--------17---|
 -19----------19--19----------19--19----------19--19----------19--|
 -----------------------------------------------------------------|
 -----------------------------------------------------------------|

[2]  
 
 -----------------------------------------------------------------|
 -----------------------------------------------------------------|
 -----------------------------------------------------------------|
 -3------------------------------------------------5--------------|
 -3------------------------------------------------5--------------|
 -3------------------------------------------------5--------------|

__ __
1 / \ / \ ____
 
 ----17-20-17--------17-20-17------------/ \--------___--------|
 ---17------17------17------17-----8-10-8-10-8-0------/ \-------|
 --17--------17----17--------17------------------7-9-7-9-7-0------|
 -19----------19--19----------19----------------------------------|
 -----------------------------------------------------------------|
 -----------------------------------------------------------------|

2 ___
 
 ---------------------------------------/ \---------___---------|
 ----------------------------------5-6-5-6-5-0-------/ \--------|
 -----------------------------------------------7-5-4-5-4-0-------|
 -0---------------------------------------------------------------|
 -0---------------------------------------------------------------|
 -0---------------------------------------------------------------|

4:33
__ __ __ __ __ __ __ __
1 / \ / \ / \ / \ / \ / \ / \ / \
 
 17-0-----17-0-----17-0-----17-0-----17-0-----17-0-----15-0---15-0---|
 ----1013-----1013-----1013-----1013-----1013-----1013-----812----812|
 --------------------------------------------------------------------|
 --------------------------------------------------------------------|
 --------------------------------------------------------------------|
 --------------------------------------------------------------------|

T T T T T T T T
[2]  
 
 -------------------------------------------------------------|
 -------------------------------------------------------------|
 -------------------------------------------------------------|
 3---3---3---3---3---3---3---3---3---3---3---3---5---5---5---5|
 3---3---3---3---3---3---3---3---3---3---3---3---5---5---5---5|
 3---3---3---3---3---3---3---3---3---3---3---3---5---5---5---5|

* * * * * * * * * * * * * * * *
__ __ __ __ __ __ __ ____
1 / \ / \ / \ / \ / \ / \ / \ / \
 
 17-0-----17-0-----17-0-----17-0-------------------15-0----15-0-----|
 ----1013-----1013-----1013-----1013-170812-170812-----1013----1013-|
 -------------------------------------------------------------------|
 -------------------------------------------------------------------|
 -------------------------------------------------------------------|
 -------------------------------------------------------------------|

T T T T T T T T
 
 --------------------------------------------------------------|
 --------------------------------------------------------------|
 --------------------------------------------------------------|
 -7---7---7---7---7---7---7---7---7---7---7---7---5---5---5---5|
 -7---7---7---7---7---7---7---7---7---7---7---7---5---5---5---5|
 -7---7---7---7---7---7---7---7---7---7---7---7---5---5---5---5|

* * * * * * * * * * * * * * * *
__ __ __ __ __ __ __ __
1 / \ / \ / \ / \ / \ / \ / \ / \
 
 17-0-----17-0-----17-0-----17-0-----17-0-----17-0-----15-0---15-0---|
 ----1013-----1013-----1013-----1013-----1013-----1013-----812----812|
 --------------------------------------------------------------------|
 --------------------------------------------------------------------|
 --------------------------------------------------------------------|
 --------------------------------------------------------------------|

T T T T T T T T
[2]  
 
 -------------------------------------------------------------|
 -------------------------------------------------------------|
 -------------------------------------------------------------|
 3---3---3---3---3---3---3---3---3---3---3---3---5---5---5---5|
 3---3---3---3---3---3---3---3---3---3---3---3---5---5---5---5|
 3---3---3---3---3---3---3---3---3---3---3---3---5---5---5---5|

* * * * * * * * * * * * * * * *
__ __ __ __
1 / \ / \ / \ / \ ____
 
 17-0------17-0------17-0------17-0------------/ \--------___----|
 ----1013------1013------1013------1013--8-10-8-10-8-0------/ \---|
 ------------------------------------------------------7-9-7-9-7-0--|
 -------------------------------------------------------------------|
 -------------------------------------------------------------------|
 -------------------------------------------------------------------|

T T T T
2 ___
 
 --------------------------------------------/ \---------___------|
 ---------------------------------------5-6-5-6-5-0-------/ \-----|
 ----------------------------------------------------7-5-4-5-4-0----|
 -0----0----0----0----0----0----0----0------------------------------|
 -0----0----0----0----0----0----0----0------------------------------|
 -0----0----0----0----0----0----0----0------------------------------|

* * * * * * * *
4:46
__ __ __ __
1 / \ / \ / \ / \
 
 ----17-19-17--------17-19-17--------17-19-17--------17-19-17-----|
 ---17------17------17------17------17------17------17------17----|
 --17--------17----17--------17----17--------17----17--------17---|
 -19----------19--19----------19--19----------19--19----------19--|
 -----------------------------------------------------------------|
 -----------------------------------------------------------------|

CONT
__ __ __ __
1 / \ / \ / \ / \
 
 ----17-20-17--------17-20-17--------17-20-17--------17-22-17-----|
 ---17------17------17------17------17------17------17------17----|
 --17--------17----17--------17----17--------17----17--------17---|
 -19----------19--19----------19--19----------19--19----------19--|
 -----------------------------------------------------------------|
 -----------------------------------------------------------------|

[2]  
 
 ------------------------------------------------------|
 ------------------------------------------------------|
 -----10-14-14-14--16-17-------10-14-14-14--14-12-12---|
 -3----X--X--X--X---X--X---7----X--X--X--X---X--X--X---|
 -3---10/12-12-12--14-15---7---10/12-12-12--12\10-10---|
 -3------------------------7---------------------------|

[3]  
 
 ------------------------------------------------------|
 ------------------------------------------------------|
 ------------------------------------------------------|
 -3--------------------5--7------------------5---------|
 -3--------------------5--7------------------5---------|
 -3--------------------5--7------------------5---------|

__ __ __ __
1 / \ / \ / \ / \
 
 ----17-19-17--------17-19-17--------17-19-17--------17-19-17-----|
 ---17------17------17------17------17------17------17------17----|
 --17--------17----17--------17----17--------17----17--------17---|
 -19----------19--19----------19--19----------19--19----------19--|
 -----------------------------------------------------------------|
 -----------------------------------------------------------------|

CONT
__ __
1 / \ / \ ____
 
 ----17-20-17--------17-20-17------------/ \--------___--------|
 ---17------17------17------17-----8-10-8-10-8-0------/ \-------|
 --17--------17----17--------17------------------7-9-7-9-7-0------|
 -19----------19--19----------19----------------------------------|
 -----------------------------------------------------------------|
 -----------------------------------------------------------------|

[2]  
 
 ------------------------------------------------------------------|
 ------------------------------------------------------------------|
 -----10-14-14-14--16-17-------10-14-14----------------------------|
 -3----X--X--X--X---X--X---7----X--X--X----------------------------|
 -3---10/12-12-12--14-15---7---10/12-12----------------------------|
 -3------------------------7---------------------------------------|

3 ___
 
 ---------------------------------------------/ \---------___----|
 ----------------------------------------5-6-5-6-5-0-------/ \---|
 -----------------------------------------------------7-5-4-5-4-0--|
 -3--------------------5--7----------------------------------------|
 -3--------------------5--7----------------------------------------|
 -3--------------------5--7----------------------------------------|

4:58
W/2 OTHER GUITARS AGAIN
__ __ __ __ __ __ __ __
1 / \ / \ / \ / \ / \ / \ / \ / \
 
 17-0-----17-0-----17-0-----17-0-----17-0-----17-0-----15-0---15-0---|
 ----1013-----1013-----1013-----1013-----1013-----1013-----812----812|
 --------------------------------------------------------------------|
 --------------------------------------------------------------------|
 --------------------------------------------------------------------|
 --------------------------------------------------------------------|

T T T T T T T T
__ __ __ __ __ __ __ __
1 / \ / \ / \ / \ / \ / \ / \ / \
 
 17-0------17-0------17-0------17-0-------------------15-0----15-0----|
 ----1013------1013------1013------1013-170812-170812-----1013----1013|
 ---------------------------------------------------------------------|
 ---------------------------------------------------------------------|
 ---------------------------------------------------------------------|
 ---------------------------------------------------------------------|

T T T T T T T T
__ __ __ __ __ __ __ __
1 / \ / \ / \ / \ / \ / \ / \ / \
 
 17-0-----17-0-----17-0-----17-0-----17-0-----17-0-----15-0---15-0---|
 ----1013-----1013-----1013-----1013-----1013-----1013-----812----812|
 --------------------------------------------------------------------|
 --------------------------------------------------------------------|
 --------------------------------------------------------------------|
 --------------------------------------------------------------------|

T T T T T T T T
__ __ __ __
1 / \ / \ / \ / \ ____
 
 17-0------17-0------17-0------17-0------------/ \--------___----|
 ----1013------1013------1013------1013--8-10-8-10-8-0------/ \---|
 ------------------------------------------------------7-9-7-9-7-0--|
 -------------------------------------------------------------------|
 -------------------------------------------------------------------|
 -------------------------------------------------------------------|

T T T T
5:11
W/OTHER 2 GUITARS AGAIN
__ __ __ __ __ __ __ __
1 / \ / \ / \ / \ / \ / \ / \ / \
 
 17-0-----17-0-----17-0-----17-0-----17-0-----17-0-----15-0---15-0---|
 ----1013-----1013-----1013-----1013-----1013-----1013-----812----812|
 --------------------------------------------------------------------|
 --------------------------------------------------------------------|
 --------------------------------------------------------------------|
 --------------------------------------------------------------------|

T T T T T T T T
__ __ __ __ __ __ __ __
/ \ / \ / \ / \ / \ / \ / \ / \
 
 -15-0----15-0----15-0----15-0----15-0----15-0--------------------|
 -----812-----812-----812-----812-----812-----812-170812-170812---|
 -----------------------------------------------------------------|
 -----------------------------------------------------------------|
 -----------------------------------------------------------------|
 -----------------------------------------------------------------|

T T T T T T T T
__ __ __ __ __ __ __ __
1 / \ / \ / \ / \ / \ / \ / \ / \
 
 17-0-----17-0-----17-0-----17-0-----17-0-----17-0-----15-0---15-0---|
 ----1013-----1013-----1013-----1013-----1013-----1013-----812----812|
 --------------------------------------------------------------------|
 --------------------------------------------------------------------|
 --------------------------------------------------------------------|
 --------------------------------------------------------------------|

T T T T T T T T
__ __ __ __
/ \ / \ / \ / \ ____
 
 -15-0----15-0----15-0----15-0------------/ \--------___------|
 -----812-----812-----812-----812---8-10-8-10-8-0------/ \-----|
 -------------------------------------------------7-9-7-9-7-0----|
 ----------------------------------------------------------------|
 ----------------------------------------------------------------|
 ----------------------------------------------------------------|

T T T T
REPEATS /FADES

Important: The song above is NOT stored on the Chordie server. The original song is hosted at www.guitaretab.com. Chordie works as a search engine and provides on-the-fly formatting. Chordie does not index songs against artists'/composers' will. To remove this song please click here.

Text color:
Chord color:
Chord grids: 
Font size:    
Page size: 

B
Rate #1 of 1 versions

Jango Player

Login - add to songbook

SHARE PAGE  



You need to log in to post comments