Guitar Tabs, Chords and Lyrics
Server problems seems to be fixed. Chordie has been experiencing problems with songs disappearing. These issues now seems to be fixed, but still verifying the fix. If you find anything strange, please email admin@chordie.com.


Frostbite  Parkway Drive

[B-F#-BE-G#-C#]  
TABBED BY andherembrace
[1]  
 
 ------------------------------------------------------------------|
 -------------------------------------5-----3----------------------|
 ------4-2----------------------5--5-----5-----5--5-4--4-5-0-4-----|
 -2--------5-4-4---4-4-5-7-------------------------------------7-5-|
 --------------------------5---------------------------------------|
 ------------------------------------------------------------------|

* * *
[2]  
 
 -----------------------------------------------------------------|
 -----------------------------------------------------------------|
 -----------------------------------------------------------------|
 ------5-4----------------------------10----9----7-5--5-7-0-5-4---|
 -7--------7-5-5---5-5-7-9-----12--12----12---12----------------5-|
 --------------------------12-------------------------------------|

* * *
[3]  
 
 -----------------------------------------------------------------|
 -----------------------------------------------------------------|
 -----------------------------------------------------------------|
 -----------------------------------------------------------------|
 -2-------------0---------------7------------------5--------------|
 -2-------------0---------------7------------------5--------------|

[1]  
 
 ------------------------------------------------------------------|
 -------------------------------------5-----3----------------------|
 ------4-2----------------------5--5-----5-----5--5-4--4-5-0-4-----|
 -2--------5-4-4---4-4-5-7-------------------------------------7-5-|
 --------------------------5---------------------------------------|
 ------------------------------------------------------------------|

* * *
[2]  
 
 -----------------------------------------------------------------|
 -----------------------------------------------------------------|
 -----------------------------------------------------------------|
 ------5-4----------------------------10----9----7-5--5-7-0-5-4---|
 -7--------7-5-5---5-5-7-9-----12--12----12---12----------------5-|
 --------------------------12-------------------------------------|

* * *
[3]  
 
 -----------------------------------------------------------------|
 -----------------------------------------------------------------|
 -----------------------------------------------------------------|
 -----------------------------------------------------------------|
 -2-------------0---------------7------------------5--------------|
 -2-------------0---------------7------------------5--------------|

[1]  
 
 ------------------------------------------------------------------|
 -------------------------------------5-----3----------------------|
 ------4-2----------------------5--5-----5-----5--5-4--4-5-0-4-----|
 -2--------5-4-4---4-4-5-7-------------------------------------7-5-|
 --------------------------5---------------------------------------|
 ------------------------------------------------------------------|

* * *
[2]  
 
 -----------------------------------------------------------------|
 -----------------------------------------------------------------|
 -----------------------------------------------------------------|
 ------5-4----------------------------10----9----7-5--5-7-0-5-4---|
 -7--------7-5-5---5-5-7-9-----12--12----12---12----------------5-|
 --------------------------12-------------------------------------|

* * *
[3]  
 
 -----------------------------------------------------------------|
 -----------------------------------------------------------------|
 -----------------------------------------------------------------|
 -----------------------------------------------------------------|
 -2-------------0---------------7------------------5--------------|
 -2-------------0---------------7------------------5--------------|

[1]  
 
 ------------------------------------------------------------------|
 -------------------------------------5-----3----------------------|
 ------4-2----------------------5--5-----5-----5--5-4--4-5-0-4-----|
 -2--------5-4-4---4-4-5-7-------------------------------------7-5-|
 --------------------------5---------------------------------------|
 ------------------------------------------------------------------|

* * *
[2]  
 
 -----------------------------------------------------------------|
 -----------------------------------------------------------------|
 -----------------------------------------------------------------|
 ------5-4----------------------------10----9----7-5--5-7-0-5-4---|
 -7--------7-5-5---5-5-7-9-----12--12----12---12----------------5-|
 --------------------------12-------------------------------------|

* * *
[3]  
 
 -----------------------------------------------------------------|
 -----------------------------------------------------------------|
 -----------------------------------------------------------------|
 -----------------------------------------------------------------|
 -2-------------0---------------7------------------5--------------|
 -2-------------0---------------7------------------5--------------|

0:28
L
 
 ---------------------------------------------------------------|
 ---------------------------------------------------------------|
 ---------------------------------------------------P-----------|
 -----------------------------------------------------S---------|
 -2-2---------------------------2-2-0-0-----------------\-------|
 -2-2---------------------------2-2-0-0-------------------------|

* * * * * *
R
 
 ----------------------------------------------------------------------|
 ----------------------------------------------------------------_-----|
 ---------------------------------------------------------------/ \----|
 -----4---2-------5---4-----0----2-2------4---5---7---4----5---7-9-7-4-|
 -------------2--------------------------------------------------------|
 -2-2---2---2---2---2----2----2------0-0---0---0---0----0----0---------|

* * * * * * * * * * * * * * *
L
 
 ---------------------------------------------------------------|
 ---------------------------------------------------------------|
 ---------------------------------------------------------------|
 -------------------9--9--9------------10-----------------------|
 -2-2--------------10-10-10-7-7-5---------14-12-10-14-12-10-9---|
 -2-2-----------------------7-7-7-------------------------------|

* * * * * * * * * * * *
R
 
 ---------------------------------------------------------------|
 ---------------------------------------------------------------|
 ---------------------------------------------------------------|
 -----4---2---------9--9--9-------------7-----------------------|
 -------------2----10-10-10-5-5-5---------10-9-7-10-9-7-5-------|
 -2-2---2---2---2-----------7-7-7-------------------------------|

* * * * * * * * * * * * * * *
0:37
[B]  
 
 ----------------------------------------------------------------------|
 ----------------------------------------------------------------_-----|
 ---------------------------------------------------------------/ \----|
 -----4---2-------5---4----0----2-2------4---5---7---4----5----7-9-7-4-|
 -------------2--------------------------------------------------------|
 -2-2---2---2---2---2----2----2------0-0---0---0---0----0----0---------|

* * * * * * * * * * * * * * *
 
 ------------------------------------------------------------------------|
 ------------------------------------------------------------------------|
 ------------------------------------------------------------------------|
 -----4---2---------9--9--9-7-7-7----------------------------------------|
 -------------2----10-10-10-9-9-9-------555577779999----1010101099997777-|
 -2-2---2---2---2-------------------2222------------5555-----------------|

* * * * * * * * *
 
 ----------------------------------------------------------------------|
 ----------------------------------------------------------------_-----|
 ---------------------------------------------------------------/ \----|
 -----4---2-------5---4----0----2-2------4---5---7---4----5----7-9-7-4-|
 -------------2--------------------------------------------------------|
 -2-2---2---2---2---2----2----2------0-0---0---0---0----0----0---------|

* * * * * * * * * * * * * * *
L
 
 ---------------------------------------------------------------|
 ---------------------------------------------------------------|
 ---------------------------------------------------------------|
 -----4---2---------9--9--9------------10-----------------------|
 -------------2----10-10-10-5-5-5---------14-12-10-14-12-10-9---|
 -2-2---2---2---2-----------7-7-7-------------------------------|

* * * * * * * * * * * * * * *
 
 ---------------------------------------------------------------|
 ---------------------------------------------------------------|
 ---------------------------------------------------------------|
 -----4---2---------9--9--9-------------7-----------------------|
 -------------2----10-10-10-5-5-5---------10-9-7-10-9-7-5-------|
 -2-2---2---2---2-----------7-7-7-------------------------------|

* * * * * * * * * * * * * * *
0:54
[B]  
 
 -------------------------------------------------------------------|
 ---------------) (~~~-------------) (-----------------------------|
 ---------^---11-------------------6--------------------------------|
 -9-----11-12-------------5-----7--------2---------4-4-2-2-0-0-2-2--|
 -9-----------------------5--------------2--------5-5-5-4-4-2-2-4-4-|
 -9-----------------------5--------------2--------------------------|

* * * * * * * * *
L
 
 --------------------------------------------------------------------|
 ---------------) (~~~-------------) (------------------------------|
 ---------^---11-------------------6---------------4-4-2-2-----------|
 -9-----11-12-------------5-----7--------2--------2-2-2-2-2-5-5-4-4--|
 -9-----------------------5--------------2-------------------5-5-5-5-|
 -9-----------------------5--------------2---------------------------|

* * * * * * * * *
R
 
 ----------------) (~~~------------) (------------------------------|
 -------------10-----------------7-----------------------------------|
 --------------------------------------------------4-4-2-2-----------|
 -9------7/9--------------5---5----------2--------2-2-2-2-2-5-5-4-4--|
 -9-----------------------5--------------2-------------------5-5-5-5-|
 -9-----------------------5--------------2---------------------------|

* * * * * * * * *
[B] [1]  
 
 ---------------------------------|
 ---------------------------------|
 ---------------------------------|
 -0-------------------------------|
 -0------000000---0000---000000---|
 -0------000000---0000---000000---|

****** **** ******
1:16
[B]  
 
 -------------------------------------------------------------------|
 -------------------------------------------------------------------|
 -------------------------------------------------------------------|
 -0-------------------------------------0---------------------------|
 -0----000000----0000----000000----0000-0----0000----0000----000000-|
 -0----000000----0000----000000----0000-0----0000----0000----000000-|

****** **** ****** **** **** **** ******
 
 -------------------------------------------------------------------|
 -------------------------------------------------------------------|
 -------------------------------------------------------------------|
 -0-------------------------------------0---------------------------|
 -0----000000----0000----000000----0000-0----0000----0000----000000-|
 -0----000000----0000----000000----0000-0----0000----0000----000000-|

****** **** ****** **** **** **** ******
1:30
[1]  
 
 -------------------------------------------------------------------------|
 --^----^---^---^----^---^---^----^----^---^----^---^----^----^----^---^--|
 -9-2-10-2-9-2-7-2-10-2-9-2-7-2-12-3-10-3-9-3-10-3-9-3-14-5-12-5-10-5-9-5-|
 -------------------------------------------------------------------------|
 -------------------------------------------------------------------------|
 -------------------------------------------------------------------------|

T T T T T T T T T T T T T T T T
[2]  
 
 -------------------------------------------------------------------|
 -------------------------------------------------------------------|
 -------------------------------------------------------------------|
 -0-----------------------------------------------------------------|
 -0----------------000000--------------0000-----------000000--------|
 -0----------------000000--------------0000-----------000000--------|

****** **** ******
[1]  
 
 -------------------------------------------------------------------------|
 --^----^---^---^----^---^---^----^----^---^----^---^----^----^----^---^--|
 -9-2-10-2-9-2-7-2-10-2-9-2-7-2-12-3-10-3-9-3-10-3-9-3-14-5-12-5-10-5-9-5-|
 -------------------------------------------------------------------------|
 -------------------------------------------------------------------------|
 -------------------------------------------------------------------------|

T T T T T T T T T T T T T T T T
[2]  
 
 -------------------------------------------------------------------|
 -------------------------------------------------------------------|
 -------------------------------------------------------------------|
 -0-----------------------------------------------------------------|
 -0----------------000000--------------0000-----------000000--------|
 -0----------------000000--------------0000-----------000000--------|

****** **** ******
[1]  
 
 -------------------------------------------------------------------------|
 --^----^---^---^----^---^---^----^----^---^----^---^----^----^----^---^--|
 -9-2-10-2-9-2-7-2-10-2-9-2-7-2-12-3-10-3-9-3-10-3-9-3-14-5-12-5-10-5-9-5-|
 -------------------------------------------------------------------------|
 -------------------------------------------------------------------------|
 -------------------------------------------------------------------------|

T T T T T T T T T T T T T T T T
[2]  
 
 -------------------------------------------------------------------|
 -------------------------------------------------------------------|
 -------------------------------------------------------------------|
 -0-----------------------------------------------------------------|
 -0----------------000000--------------0000-----------000000--------|
 -0----------------000000--------------0000-----------000000--------|

****** **** ******
 
 -------------------------------------------------------------------|
 -------------------------------------------------------------------|
 -------------------------------------------------------------------|
 -0-----------------------------------------------------------------|
 -0----------------000000--------------0000-----------0000-\--------|
 -0----------------000000--------------0000-----------0000-\--------|

****** **** ****
1:45
[B]  
 
 ----------------------------------------------------------------------|
 ----------------------------------------------------------------_-----|
 ---------------------------------------------------------------/ \----|
 -----4---2-------5---4----0----2-2------4---5---7---4----5----7-9-7-4-|
 -------------2--------------------------------------------------------|
 -2-2---2---2---2---2----2----2------0-0---0---0---0----0----0---------|

* * * * * * * * * * * * * * *
 
 ------------------------------------------------------------------------|
 ------------------------------------------------------------------------|
 ------------------------------------------------------------------------|
 -----4---2---------9--9--9-7-7-7----------------------------------------|
 -------------2----10-10-10-9-9-9-------555577779999----1010101099997777-|
 -2-2---2---2---2-------------------2222------------5555-----------------|

* * * * * * * * *
 
 ----------------------------------------------------------------------|
 ----------------------------------------------------------------_-----|
 ---------------------------------------------------------------/ \----|
 -----4---2-------5---4----0----2-2------4---5---7---4----5----7-9-7-4-|
 -------------2--------------------------------------------------------|
 -2-2---2---2---2---2----2----2------0-0---0---0---0----0----0---------|

* * * * * * * * * * * * * * *
L
 
 ---------------------------------------------------------------|
 ---------------------------------------------------------------|
 ---------------------------------------------------------------|
 -----4---2---------9--9--9------------10-----------------------|
 -------------2----10-10-10-5-5-5---------14-12-10-14-12-10-9---|
 -2-2---2---2---2-----------7-7-7-------------------------------|

* * * * * * * * * * * * * * *
 
 ---------------------------------------------------------------|
 ---------------------------------------------------------------|
 ---------------------------------------------------------------|
 -----4---2---------9--9--9-------------7-----------------------|
 -------------2----10-10-10-5-5-5---------10-9-7-10-9-7-5-------|
 -2-2---2---2---2-----------7-7-7-------------------------------|

* * * * * * * * * * * * * * *
2:02
[B]  
 
 -------------------------------------------------------------------|
 ---------------) (~~~-------------) (-----------------------------|
 ---------^---11-------------------6--------------------------------|
 -9-----11-12-------------5-----7--------2---------4-4-2-2-0-0-2-2--|
 -9-----------------------5--------------2--------5-5-5-4-4-2-2-4-4-|
 -9-----------------------5--------------2--------------------------|

* * * * * * * * *
L
 
 --------------------------------------------------------------------|
 ---------------) (~~~-------------) (------------------------------|
 --------^----11-------------------6---------------------------------|
 -9----11-12--------------5-----7--------2---------------------------|
 -9-----------------------5--------------2---------------------------|
 -9-----------------------5--------------2----------------------\----|

R
 
 ----------------) (~~~------------) (------------------------------|
 --------------10------------------7---------------------------------|
 --------------------------------------------------------------------|
 -9------7/9--------------5-----5--------2---------------------------|
 -9-----------------------5--------------2---------------------------|
 -9-----------------------5--------------2-----------------------\---|

2:21
[1] [B]  
 
 --------------------------------------------------------------------|
 --------------------------------------------------------------------|
 --_-------_-------_-------_-------_--------_--------_--------_------|
 -/ \-----/ \-----/ \-----/ \-----/ \------/ \------/ \------/ \-----|
 5-8-5---5-8-5---5-8-5---5-8-5---7-8-7----7-8-7----7-8-7----7-8-7----|
 ------8-------8-------8-------8-------10-------10-------10-------10-|
 -----------------------------------------------------------------------|
 -----------------------------------------------------------------------|
 --__-------__-------__-------__-------__-------__-------__-------__----|
 -/ \-----/ \-----/ \-----/ \-----/ \-----/ \-----/ \-----/ \---|
 8-12-8---8-12-8---8-12-8---8-12-8---8-10-8---8-10-8---8-10-8---8-10-8--|
 ------12-------12-------12-------12-------10-------10-------10-------10|
 --------------------------------------------------------------------|
 --------------------------------------------------------------------|
 --_-------_-------_-------_-------_--------_--------_--------_------|
 -/ \-----/ \-----/ \-----/ \-----/ \------/ \------/ \------/ \-----|
 5-8-5---5-8-5---5-8-5---5-8-5---7-8-7----7-8-7----7-8-7----7-8-7----|
 ------8-------8-------8-------8-------10-------10-------10-------10-|
 -----------------------------------------------------------------------|
 -----------------------------------------------------------------------|
 --__-------__-------__-------__-------__-------__-------__-------__----|
 -/ \-----/ \-----/ \-----/ \-----/ \-----/ \-----/ \-----/ \---|
 8-12-8---8-12-8---8-12-8---8-12-8---8-10-8---8-10-8---8-10-8---8-10-8--|
 ------12-------12-------12-------12-------10-------10-------10-------10|

[1]  
 
 --------------------------------------------------------------------|
 --------------------------------------------------------------------|
 --_-------_-------_-------_-------_--------_--------_--------_------|
 -/ \-----/ \-----/ \-----/ \-----/ \------/ \------/ \------/ \-----|
 5-8-5---5-8-5---5-8-5---5-8-5---7-8-7----7-8-7----7-8-7----7-8-7----|
 ------8-------8-------8-------8-------10-------10-------10-------10-|

[2]  
 
 --------------------------------------------------------------------|
 --------------------------------------------------------------------|
 --------------------------------------------------------------------|
 -5-----------------------------7------------------------------------|
 -5-----------------------------7------------------------------------|
 -5-----------------------------7------------------------------------|

[1]  
 
 -----------------------------------------------------------------------|
 -----------------------------------------------------------------------|
 --__-------__-------__-------__-------__-------__-------__-------__----|
 -/ \-----/ \-----/ \-----/ \-----/ \-----/ \-----/ \-----/ \---|
 8-12-8---8-12-8---8-12-8---8-12-8---8-10-8---8-10-8---8-10-8---8-10-8--|
 ------12-------12-------12-------12-------10-------10-------10-------10|

[2]  
 
 -----------------------------------------------------------------------|
 -----------------------------------------------------------------------|
 -----------------------------------------------------------------------|
 -8-----------------------------------10--------------------------------|
 -8-----------------------------------10--------------------------------|
 -8-----------------------------------10--------------------------------|

[1]  
 
 --------------------------------------------------------------------|
 --------------------------------------------------------------------|
 --_-------_-------_-------_-------_--------_--------_--------_------|
 -/ \-----/ \-----/ \-----/ \-----/ \------/ \------/ \------/ \-----|
 5-8-5---5-8-5---5-8-5---5-8-5---7-8-7----7-8-7----7-8-7----7-8-7----|
 ------8-------8-------8-------8-------10-------10-------10-------10-|

[2]  
 
 --------------------------------------------------------------------|
 --------------------------------------------------------------------|
 --------------------------------------------------------------------|
 -5-----------------------------7------------------------------------|
 -5-----------------------------7------------------------------------|
 -5-----------------------------7------------------------------------|

[1]  
 
 ----------------------------------------------------|
 ----------------------------------------------------|
 --__-------__-------__-------__---------------------|
 -/ \-----/ \-----/ \-----/ \----7------5----3---|
 8-12-8---8-12-8---8-12-8---8-12-8---7------5----3---|
 ------12-------12-------12-------12-7------5----3---|

[2]  
 
 ----------------------------------------------------|
 ----------------------------------------------------|
 ----------------------------------------------------|
 -8-----------------------------------7------5----3--|
 -8-----------------------------------7------5----3--|
 -8-----------------------------------7------5----3--|

2:45
[B]  
 
 -------------------------------------------------------------------|
 -------------------------------------------------------------------|
 -------------------------------------------------------------------|
 -0-------------------------------------0---------------------------|
 -0----000000----0000----000000----0000-0----0000----0000----000000-|
 -0----000000----0000----000000----0000-0----0000----0000----000000-|

****** **** ****** **** **** **** ******
 
 -------------------------------------------------------------------|
 -------------------------------------------------------------------|
 -------------------------------------------------------------------|
 -0-------------------------------------0---------------------------|
 -0----000000----0000----000000----0000-0----0000----0000----000000-|
 -0----000000----0000----000000----0000-0----0000----0000----000000-|

****** **** ****** **** **** **** ******
2:59
[1]  
 
 -------------------------------------------------------------------------|
 --^----^---^---^----^---^---^----^----^---^----^---^----^----^----^---^--|
 -9-2-10-2-9-2-7-2-10-2-9-2-7-2-12-3-10-3-9-3-10-3-9-3-14-5-12-5-10-5-9-5-|
 -------------------------------------------------------------------------|
 -------------------------------------------------------------------------|
 -------------------------------------------------------------------------|

T T T T T T T T T T T T T T T T
[2]  
 
 -----------------------------------------------------------------|
 -----------------------------------------------------------------|
 -----------------------------------------------------------------|
 -----------------------------------------------------------------|
 -----------------------------------------------------------------|
 -5-5-5-5-5-5-5-5-5-5-5-5-5-5-5-5-7-7-7-7-7-7-7-7-7-7-7-7-7-7-7-7-|

* * * * * * * * * * * * * * * * * * * * * * * * * * * * * * * *
[1]  
 
 -------------------------------------------------------------------------|
 --^----^---^---^----^---^---^----^----^---^----^---^----^----^----^---^--|
 -9-2-10-2-9-2-7-2-10-2-9-2-7-2-12-3-10-3-9-3-10-3-9-3-14-5-12-5-10-5-9-5-|
 -------------------------------------------------------------------------|
 -------------------------------------------------------------------------|
 -------------------------------------------------------------------------|

T T T T T T T T T T T T T T T T
[2]  
 
 -----------------------------------------------------------------|
 -----------------------------------------------------------------|
 -----------------------------------------------------------------|
 -----------------------------------------------------------------|
 -----------------------------------------------------------------|
 8-8-8-8-8-8-8-8-8-8-8-8-8-8-8-8-10101010101010101010101010101010-|

* * * * * * * * * * * * * * * * * * * * * * * * * * * * * * * *
[1]  
 
 -------------------------------------------------------------------------|
 --^----^---^---^----^---^---^----^----^---^----^---^----^----^----^---^--|
 -9-2-10-2-9-2-7-2-10-2-9-2-7-2-12-3-10-3-9-3-10-3-9-3-14-5-12-5-10-5-9-5-|
 -------------------------------------------------------------------------|
 -------------------------------------------------------------------------|
 -------------------------------------------------------------------------|

T T T T T T T T T T T T T T T T
[2]  
 
 -----------------------------------------------------------------|
 -----------------------------------------------------------------|
 -----------------------------------------------------------------|
 -----------------------------------------------------------------|
 -----------------------------------------------------------------|
 -5-5-5-5-5-5-5-5-5-5-5-5-5-5-5-5-7-7-7-7-7-7-7-7-7-7-7-7-7-7-7-7-|

* * * * * * * * * * * * * * * * * * * * * * * * * * * * * * * *
[1]  
 
 ------------------------------------------------------|
 --^----^---^---^----^---^---^----^--------------------|
 -9-2-10-2-9-2-7-2-10-2-9-2-7-2-12-3-------------------|
 -------------------------------------7------5----3----|
 -------------------------------------7------5----3----|
 -------------------------------------7------5----3----|

T T T T T T T T
[2]  
 
 ------------------------------------------------------|
 ------------------------------------------------------|
 ------------------------------------------------------|
 -------------------------------------7------5----3----|
 -------------------------------------7------5----3----|
 -8-8-8-8-8-8-8-8-8-8-8-8-8-8-8-8-----7------5----3----|

* * * * * * * * * * * * * * * *
3:15
[B]  
 
 -------------------------------------------------------|
 -------------------------------------------------------|
 -------------------------------------------------------|
 -0---------------------------0-------------------------|
 -0-----000000-----000000-----0-----000000-----000000---|
 -0-----000000-----000000-----0-----000000-----000000---|

****** ****** ****** ******
3:22
[1]  
 
 -------------------------------------------------------------------------|
 --^----^---^---^----^---^---^----^----^---^----^---^----^----^----^---^--|
 -9-2-10-2-9-2-7-2-10-2-9-2-7-2-12-3-10-3-9-3-10-3-9-3-14-5-12-5-10-5-9-5-|
 -------------------------------------------------------------------------|
 -------------------------------------------------------------------------|
 -------------------------------------------------------------------------|

T T T T T T T T T T T T T T T T
[2]  
 
 ---------------------------------------------------------------------------|
 --^---^---^---^---^----^----^----^----^----^----^----^----^----^----^----^-|
 12-214-212-210-214-2-12-2-10-2-15-3-14-3-12-3-14-3-12-3-17-5-15-5-14-5-12-5|
 ---------------------------------------------------------------------------|
 ---------------------------------------------------------------------------|
 ---------------------------------------------------------------------------|

T T T T T T T T T T T T T T T T
 
 ---------------------------------------------------------------------|
 ---------------------------------------------------------------------|
 ---------------------------------------------------------------------|
 -0-------------------------------------------------------------------|
 -0---------------000000---------------------------------000000-------|
 -0---------------000000---------------------------------000000-------|

****** ******
[1]  
 
 ----------------------------------------------------------------|
 --^----^---^---^----^---^---^----^----^---^----^---^------------|
 -9-2-10-2-9-2-7-2-10-2-9-2-7-2-12-3-10-3-9-3-10-3-9-3-----------|
 ----------------------------------------------------------------|
 -------------------------------------------------------000000---|
 -------------------------------------------------------000000---|

T T T T T T T T T T T T ******
[2]  
 
 ----------------------------------------------------------------|
 --^---^---^---^---^----^----^----^----^----^----^----^----------|
 12-214-212-210-214-2-12-2-10-2-15-3-14-3-12-3-14-3-12-3---------|
 ----------------------------------------------------------------|
 ---------------------------------------------------------000000-|
 ---------------------------------------------------------000000-|

T T T T T T T T T T T T ******
 
 -----------------------------------|
 -----------------------------------|
 -----------------------------------|
 -0---------------------------------|
 -0--------------------000000-------|
 -0--------------------000000-------|

******

Important: The song above is NOT stored on the Chordie server. The original song is hosted at www.guitaretab.com. Chordie works as a search engine and provides on-the-fly formatting. Chordie does not index songs against artists'/composers' will. To remove this song please click here.

Text color:
Chord color:
Chord grids: 
Font size:    
Page size: 

B
Rate #1 of 1 versions

Jango Player

Login - add to songbook

SHARE PAGE  



You need to log in to post comments