Guitar Tabs, Chords and Lyrics
Server problems seems to be fixed. Chordie has been experiencing problems with songs disappearing. These issues now seems to be fixed, but still verifying the fix. If you find anything strange, please email admin@chordie.com.


Snake Oil and Holy Water  Parkway Drive

[B-F#-B-E-G#-C#]  
TABBED BY andherembrace
0:02
 
 ---------------------------------------------------------------|
 ---------------------------------------------------------------|
 ---------------------------------------------------------------|
 -----------------------------------------------7---------------|
 -------------------------------------------------8---10-8-7-8--|
 -0-0-0-12~-0-0-000-0-0-000-0-0-0-0-0-12~-0-0-8-----8-----------|

* * *** * * *** * * * *
 
 -------------------------------------------------------------------|
 -------------------------------------------------------------------|
 -------------------------------------------------------------------|
 -------------------------------------------------------------------|
 -------------------------------------------------------------------|
 -0-0-0-12~-0-0-000-0-0-000-0-0-0-0-0-12~-0-0-0-15-15-15-0-14-14-14-|

* * *** * * *** * * * * * *
0:12
L
 
 ------------------------------------------------------------------|
 ------------------------------------------------------------------|
 ------------------------------------------------------------------|
 -----------------------------------------------10-----------------|
 -------------------------------------------------10---13-12-10-12-|
 -0-0-0-12~-0-0-000-0-0-000-0-0-0-0-0-12~-0-0-12----12-------------|

* * *** * * *** * * * *
R
 
 ---------------------------------------------------------------|
 ---------------------------------------------------------------|
 ---------------------------------------------------------------|
 -----------------------------------------------7---------------|
 -------------------------------------------------8---10-8-7-8--|
 -0-0-0-12~-0-0-000-0-0-000-0-0-0-0-0-12~-0-0-8-----8-----------|

* * *** * * *** * * * *
0:17
L
 
 ---------------------------------------------------------------------|
 ---------------------------------------------------------------------|
 ---------------------------------------------------------------------|
 ---------------------------------------------------------------------|
 ---------------------------------------------------------------------|
 -0-0-0-12~--0-0-0-12~--0-0-12~--0-0-0-12~--0-0-0-19-19-19-0-17-17-17-|

* *
R
 
 ---------------------------------------------------------------------|
 ---------------------------------------------------------------------|
 ---------------------------------------------------------------------|
 ---------------------------------------------------------------------|
 ---------------------------------------------------------------------|
 -0-0-0-12~--0-0-0-12~--0-0-12~--0-0-0-12~--0-0-0-15-15-15-0-14-14-14-|

* *
0:21
L
 
 -----------------------------------------------------------------------|
 -----------------------------------------------------------------------|
 -----------------------------------------------------------------------|
 -----------------------------------------------------------------------|
 -----------------------------------------------------------------------|
 -0-0-0-0-0-0-0-0-0-0-0-0-0-0-0-0-0-0-0-0-0-0-0-0-0-15-15-15-0-14-14-14-|

* * * * * * * * * * * * * * * * * * * *
R
 
 -----------------------------------------------------------------------|
 -----------------------------------------------------------------------|
 -----------------------------------------------------------------------|
 -----------------------------------------------------------------------|
 -----------------------------------------------------------------------|
 -0-0-0-0-0-0-0-0-0-0-0-0-0-0-0-0-0-0-0-0-0-0-0-0-0-19-19-19-0-17-17-17-|

* * * * * * * * * * * * * * * * * * * *
0:26
[B]  
 
 -------------------------------------------------------------------|
 -------------------------------------------------------------------|
 -------------------------------------------------------------------|
 ----------------------------------------------------------------7--|
 ---------------------------------------------------5-8-----7-10----|
 -0-0-0-0-0-0-0-0-0-0-0-0-0-0-0-0-0-0-0-0-0-0-0-0-8------10---------|

* * * * * * * * * * * * * * * * * *
L
 
 -----------------------------------------------------------------------|
 -----------------------------------------------------------------------|
 -----------------------------------------------------------------------|
 -----------------------------------------------------------------------|
 -----------------------------------------------------------------------|
 -0-0-0-0-0-0-0-0-0-0-0-0-0-0-0-0-0-0-0-0-0-0-0-0-0-15-15-15-0-14-14-14-|

* * * * * * * * * * * * * * * * * * * *
R
 
 -----------------------------------------------------------------------|
 -----------------------------------------------------------------------|
 -----------------------------------------------------------------------|
 -----------------------------------------------------------------------|
 -----------------------------------------------------------------------|
 -0-0-0-0-0-0-0-0-0-0-0-0-0-0-0-0-0-0-0-0-0-0-0-0-0-19-19-19-0-17-17-17-|

* * * * * * * * * * * * * * * * * * * *
L
 
 ---------------------------------------------------------------------|
 ---------------------------------------------------------------------|
 ---------------------------------------------------------------------|
 -----------------------------------------------------------------7---|
 ---------------------------------------------------5-8-8----7-10-----|
 -0-0-0-0-0-0-0-0-0-0-0-0-0-0-0-0-0-0-0-0-0-0-0-0-8-------10----------|

* * * * * * * * * * * * * * * * * *
R
 
 ---------------------------------------------------------------------|
 ---------------------------------------------------------------------|
 ---------------------------------------------------------------------|
 ------------------------------------------------------------------12-|
 ---------------------------------------------------8-12-12--12-15----|
 -0-0-0-0-0-0-0-0-0-0-0-0-0-0-0-0-0-0-0-0-0-0-0-0-12-------15---------|

* * * * * * * * * * * * * * * * * *
0:41
 
 --------------------------------------------------------------------|
 --------------------------------------------------------------------|
 --------------------------------------------------------------------|
 --------------------------------------------------------------------|
 ---------77777777---------77778888---------77777777--------77773333-|
 33333333---------33333333---------00000000---------00000000---------|
 ----------------------------------------------------------------------------|
 ----------------------------------------------------------------------------|
 ----------------------------------------------------------------------------|
 ------------7777------------7777------------5555101010109999----------------|
 --------3333------------3333------------5555----------------1010101012121212|
 77777777--------77777777--------55555555------------------------------------|
 --------------------------------------------------------------------|
 --------------------------------------------------------------------|
 --------------------------------------------------------------------|
 --------------------------------------------------------------------|
 ---------77777777---------77778888---------77777777--------77773333-|
 33333333---------33333333---------00000000---------00000000---------|
 ----------------------------------------------------------------------------|
 ----------------------------------------------------------------------------|
 ----------------------------------------------------------------------------|
 ------------7777------------7777------------5555101010109999----------------|
 --------3333------------3333------------5555----------------1010101012121212|
 77777777--------77777777--------55555555------------------------------------|

1:00
 
 -----------------------------------------------------------|
 -----------------------------------------------------------|
 -----------------------------------------------------------|
 -----------------------------------------------------------|
 -----------------------------------------------------0-----|
 -7-0-8-0-10-0-7-0-8-0-10-0-7-0-8-0-10-0-7-0-8-0-10-0-0-|---|

L
 
 ------------------------------------------------------------------|
 ------------------------------------------------------------------|
 ------------------------------------------------------------------|
 -----------------------------------------------10-----------------|
 -------------------------------------------------10---13-12-10-12-|
 -0-0-0-12~-0-0-000-0-0-000-0-0-0-0-0-12~-0-0-12----12-------------|

* * *** * * *** * * * *
R
 
 ---------------------------------------------------------------|
 ---------------------------------------------------------------|
 ---------------------------------------------------------------|
 -----------------------------------------------7---------------|
 -------------------------------------------------8---10-8-7-8--|
 -0-0-0-12~-0-0-000-0-0-000-0-0-0-0-0-12~-0-0-8-----8-----------|

* * *** * * *** * * * *
L
 
 -------------------------------------------------------------------|
 -------------------------------------------------------------------|
 -------------------------------------------------------------------|
 -------------------------------------------------------------------|
 -------------------------------------------------------------------|
 -0-0-0-12~-0-0-000-0-0-000-0-0-0-0-0-12~-0-0-0-19-19-19-0-17-17-17-|

* * *** * * *** * * * * * *
R
 
 -------------------------------------------------------------------|
 -------------------------------------------------------------------|
 -------------------------------------------------------------------|
 -------------------------------------------------------------------|
 -------------------------------------------------------------------|
 -0-0-0-12~-0-0-000-0-0-000-0-0-0-0-0-12~-0-0-0-15-15-15-0-14-14-14-|

* * *** * * *** * * * * * *
1:13
L
 
 -----------------------------------------------------------------------|
 -----------------------------------------------------------------------|
 -----------------------------------------------------------------------|
 -----------------------------------------------------------------------|
 -----------------------------------------------------------------------|
 -0-0-0-0-0-0-0-0-0-0-0-0-0-0-0-0-0-0-0-0-0-0-0-0-0-15-15-15-0-14-14-14-|

* * * * * * * * * * * * * * * * * * * *
R
 
 -----------------------------------------------------------------------|
 -----------------------------------------------------------------------|
 -----------------------------------------------------------------------|
 -----------------------------------------------------------------------|
 -----------------------------------------------------------------------|
 -0-0-0-0-0-0-0-0-0-0-0-0-0-0-0-0-0-0-0-0-0-0-0-0-0-19-19-19-0-17-17-17-|

* * * * * * * * * * * * * * * * * * * *
[B]  
 
 -------------------------------------------------------------------|
 -------------------------------------------------------------------|
 -------------------------------------------------------------------|
 -----------------------------------------------------------------7-|
 ----------------------------------------------------5-8-----7-10---|
 -0-0-0-0-0-0-0-0-0-0-0-0-0-0-0-0-0-0-0-0-0-0-0-0--8------10--------|

* * * * * * * * * * * * * * * * * *
1:23
L
 
 ----------------------------------------------------------------------|
 ----------------------------------------------------------------------|
 ----------------------------------------------------------------------|
 ----------------------------------------------------------------------|
 ----------------------------------------------------------------------|
 000-0-12-0-0-0-0-000-0-0-0-0-0-0-000-0-0-0-0-0-0-0-15-15-15-0-14-14-14|

*** * * * * * *** * * * * * *** * * * * * * *
R
 
 ----------------------------------------------------------------------|
 ----------------------------------------------------------------------|
 ----------------------------------------------------------------------|
 ----------------------------------------------------------------------|
 ----------------------------------------------------------------------|
 000-0-12-0-0-0-0-000-0-0-0-0-0-0-000-0-0-0-0-0-0-0-19-19-19-0-17-17-17|

*** * * * * * *** * * * * * *** * * * * * * *
L
 
 -------------------------------------------------------------------|
 -------------------------------------------------------------------|
 -------------------------------------------------------------------|
 -------------------------------------------------------------------|
 ----------------------------------------------------5-8-----7-10---|
 -000-0-12-0-0-0-0-000-0-0-0-0-0-0-000-0-0-0-0-0-0-8------10--------|

*** * * * * * *** * * * * * *** * * * * *
R
 
 -------------------------------------------------------------------|
 -------------------------------------------------------------------|
 -------------------------------------------------------------------|
 -------------------------------------------------------------------|
 -------12-------------------------------------------5-8-----7-10---|
 -000-0-12-0-0-0-0-000-0-0-0-0-0-0-000-0-0-0-0-0-0-8------10--------|

*** * * * * * *** * * * * * *** * * * * *
1:33
[1]  
 
 --------------------------------------------------------|
 --------------------------------------------------------|
 -----10------10--------7--------3----------10------10---|
 ---------10---------------7--------7-----------10-------|
 --------------------------------------------------------|
 -8------------------0--------3---------8----------------|

[2]  
 
 --------------------------------------------------------|
 --------------------------------------------------------|
 -----10------------------7--------3--------10-----------|
 ---------10-----------------7--------7---------10-------|
 -------------10------------------------------------10---|
 -8-----------10------0--------3---------8----------10---|

[B]  
 
 ------------------------------------|
 ------------------------------------|
 ------------------------------------|
 ------------------------------------|
 ------------------------------------|
 -7-0-8-0-10-0-7-0-8-0-10-0-8-0-7-0--|

[1]  
 
 --------------------------------------------------------|
 --------------------------------------------------------|
 -----10------10--------7--------3----------10------10---|
 ---------10---------------7--------7-----------10-------|
 --------------------------------------------------------|
 -8------------------0--------3---------8----------------|

[2]  
 
 --------------------------------------------------------|
 --------------------------------------------------------|
 -----10------------------7--------3--------10-----------|
 ---------10-----------------7--------7---------10-------|
 -------------10------------------------------------10---|
 -8-----------10------0--------3---------8----------10---|

[B]  
 
 ---------------------------------------------|
 ---------------------------------------------|
 ---------------------------------------------|
 ---------------------------------------------|
 ----------------------------------------0----|
 -7-0-8-0-10-0-7-0-8-0-10-0-7-0-8-0-10-0-0-|--|

1:53
 
 ----------------------------------------------------------------|
 ----------------------------------------------------------------|
 ----------------------------------------------------------------|
 -------------------------------------------------7--------------|
 ---------------------------------------------------8---10-8-7-8-|
 -0-0-0-12~--0-0-0-12~--0-0-12~--0-0-0-12~--0-0-8-----8----------|
 ---------------------------------------------------------------------|
 ---------------------------------------------------------------------|
 ---------------------------------------------------------------------|
 ---------------------------------------------------------------------|
 ---------------------------------------------------------------------|
 -0-0-0-12~--0-0-0-12~--0-0-12~--0-0-0-12~--0-0-0-15-15-15-0-14-14-14-|

* *
2:03
L
 
 ------------------------------------------------------------------------|
 ------------------------------------------------------------------------|
 ------------------------------------------------------------------------|
 ------------------------------------------------------------------------|
 ------------------------------------------------------------------------|
 -000-000-000-000-000-000-000-000-000-000-000-000-10-13-13-13-10-12-12-12|

*** *** *** *** *** *** *** *** *** *** *** *** * * * * * * * *
R
 
 ------------------------------------------------------------------------|
 ------------------------------------------------------------------------|
 ------------------------------------------------------------------------|
 ------------------------------------------------------------------------|
 -------------------------------------------------10-13-13-13-10-12-12-12|
 -000-000-000-000-000-000-000-000-000-000-000-000------------------------|

*** *** *** *** *** *** *** *** *** *** *** *** * * * * * * * *
L
 
 -------------------------------------------------------------------|
 -------------------------------------------------------------------|
 -------------------------------------------------------------------|
 -----------------------------------------------------------------7-|
 ---------------------------------------------------5-8-8----7-10---|
 -000-000-000-000-000-000-000-000-000-000-000-000-8-------10--------|

*** *** *** *** *** *** *** *** *** *** *** ***
R
 
 ---------------------------------------------------------------------|
 ---------------------------------------------------------------------|
 ---------------------------------------------------------------------|
 -------------------------------------------------------------------12|
 ----------------------------------------------------8-12-12---12-15--|
 -000-000-000-000-000-000-000-000-000-000-000-000-12---------15-------|

*** *** *** *** *** *** *** *** *** *** *** ***
 
 --------------------------------------------------------------------|
 --------------------------------------------------------------------|
 --------------------------------------------------------------------|
 --------------------------------------------------------------------|
 ---------77777777---------77778888---------77777777--------77773333-|
 33333333---------33333333---------00000000---------00000000---------|
 ----------------------------------------------------------------------------|
 ----------------------------------------------------------------------------|
 ----------------------------------------------------------------------------|
 ------------7777------------7777------------5555101010109999----------------|
 --------3333------------3333------------5555----------------1010101012121212|
 77777777--------77777777--------55555555------------------------------------|
 --------------------------------------------------------------------|
 --------------------------------------------------------------------|
 --------------------------------------------------------------------|
 --------------------------------------------------------------------|
 ---------77777777---------77778888---------77777777--------77773333-|
 33333333---------33333333---------00000000---------00000000---------|

L
 
 -------------------------------------------------------------------------|
 -------------------------------------------------------------------------|
 ----------------------------------------------------99997777-------------|
 ------------7777------------7777--------999910101010--------999910101010-|
 --------3333------------3333---------------------------------------------|
 77777777--------77777777--------55555555---------------------------------|

R
 
 ----------------------------------------------------------------------------|
 ----------------------------------------------------------------------------|
 ----------------------------------------------------------------------------|
 ------------7777------------7777------------5555101010109999----------------|
 --------3333------------3333------------5555----------------1010101012121212|
 77777777--------77777777--------55555555------------------------------------|

L
 
 ---------------------------------------------------------------------|
 ---------------------------------------------------------------------|
 ---------------------------------------------------------------------|
 ---------99999999--------999910101010--------99999999--------99995555|
 -55555555--------55555555------------55555555--------55555555--------|
 ---------------------------------------------------------------------|

R
 
 --------------------------------------------------------------------|
 --------------------------------------------------------------------|
 --------------------------------------------------------------------|
 --------------------------------------------------------------------|
 ---------77777777---------77778888---------77777777--------77773333-|
 33333333---------33333333---------00000000---------00000000---------|

L
 
 -------------------------------------------------------------|
 -------------------------------------------------------------|
 -------------------------------------------------------------|
 --------999910101010--------999910101010--------999910101010-|
 77777777------------77777777------------55555555-------------|
 -------------------------------------------------------------|

L CONT
 
 -------------------------|
 -------------------------|
 -99997777----------------|
 ---------999910101010----|
 -------------------------|
 -------------------------|

R
 
 ----------------------------------------------------------------------------|
 ----------------------------------------------------------------------------|
 ----------------------------------------------------------------------------|
 ------------7777------------7777------------5555101010109999----------------|
 --------3333------------3333------------5555----------------1010101012121212|
 77777777--------77777777--------55555555------------------------------------|

L B
 
 --------------------------------------------------------|
 --------------------------------------------------------|
 --------------------------------------------------------|
 --------------------------------------------------------|
 ------------------------------------------------0-------|
 -7-0-8-0-10-0-7-0-8-0-10-0-7-0-8-0-10-0-8-0-7-0-0-|-----|


Important: The song above is NOT stored on the Chordie server. The original song is hosted at www.guitaretab.com. Chordie works as a search engine and provides on-the-fly formatting. Chordie does not index songs against artists'/composers' will. To remove this song please click here.

Text color:
Chord color:
Chord grids: 
Font size:    
Page size: 

B
Rate #2 of 2 versions

Login - add to songbook

SHARE PAGE  



You need to log in to post comments