Guitar Tabs, Chords and Lyrics
Server problems seems to be fixed. Chordie has been experiencing problems with songs disappearing. These issues now seems to be fixed, but still verifying the fix. If you find anything strange, please email admin@chordie.com.


Dream Run  Parkway Drive

[B-F#-BE-G#-C#]  
TABBED BY andherembrace
0:01
+EQ FILTER
[B]  
 
 ------------------------------------------------------------------------|
 ------------------------------------------------------------------------|
 ------------------------------------------------------------------------|
 ------------------------------------------------------------------------|
 -------------12------------------------------------------12---10---7/8--|
 -12-12-12-12----12--0--0--0--0-000-0-0--0--0-000-0-0--88----8----8------|

| | | | * *** * | | * *** * | ** * *
R GTR PLAYS AN ADDITIONAL 2 NOTES STACKED THROUGHOUT SONG
*
 
 -------------------------------------------------|
 -------------------------------------------------|
 ---------(10)------------------------------------|
 ---------( 8)------------------------------------|
 ------8----8--8--8----------8--8----------8------|
 -8888---8--8--8--8--8-888-8-8--8--8-888-8-8------|

| | | | * *** * | | * *** * |
0:12
NORMAL
[B]  
 
 ------------------------------------------------------------------------|
 ------------------------------------------------------------------------|
 ------------------------------------------------------------------------|
 ------------------------------------------------------------------------|
 -------------12------------------------------------------12---10---7/8--|
 -12-12-12-12----12--0--0--0--0-000-0-0--0--0-000-0-0--88----8----8------|

| | | | * *** * | | * *** * | ** * *
 
 ---------------------------------------------------------------|
 ---------------------------------------------------------------|
 ----------------------------------------------------10-12-12-R-|
 -----------------------------------------------------8-10-10-R-|
 ---------8----8--8--8----------8--8----------8----8--8-10-10---|
 -8-8-8-8---8--8--8--8--8-888-8-8--8--8-888-8-8--8-8--8/10-10---|

| | | | * *** * | | * *** * | * |
 
 ------------------------------------------------------------------------|
 ------------------------------------------------------------------------|
 ------------------------------------------------------------------------|
 ------------------------------------------------------------------------|
 -------------12------------------------------------------12---10---7/8--|
 -12-12-12-12----12--0--0--0--0-000-0-0--0--0-000-0-0--88----8----8------|

| | | | * *** * | | * *** * | ** * *
 
 ---------------------------------------------------------------|
 ---------------------------------------------------------------|
 ----------------------------------------------------10-12-12-R-|
 -----------------------------------------------------8-10-10-R-|
 ---------8----8--8--8----------8--8----------8----8--8-10-10---|
 -8-8-8-8---8--8--8--8--8-888-8-8--8--8-888-8-8--8-8--8/10-10---|

| | | | * *** * | | * *** * | * |
0:33
L
 
 ----------------------------------------------------------------------|
 ----------------------------------------------------------------------|
 -----------------------------------------------------_____------------|
 ----------------------------------------------------/ \-----------|
 --------------------------------------------------10-12-10\8-10--8-7--|
 -0-0-0-0-00000000-0--0--0--00000000-0-0-0-0-0000----------------------|

* * * * ******** * * * ******** * * * * ****
R
 
 ----------------------------------------------------------------------|
 ----------------------------------------------------------------------|
 ----------------------------------------------------___---------------|
 ---------------------------------------------------/ \--------------|
 --------------------------------------------------7-8-7\5-7--5-3------|
 -0-0-0-0-00000000-0--0--0--00000000-0-0-0-0-0000----------------------|

* * * * ******** * * * ******** * * * * ****
0:39
B R B L
 
 ---------------------------------------------------------|
 ---------------------------------------------------------|
 ---------------------------------------------------------|
 ---------------------------------------------------------|
 ---------------------------------------------------------|
 -0-0-0-0------000-0-0-0-0-----0-0-0-0------000-0-0-0-0---|

| | | |
B R B
 
 ---------------------------------------------------------|
 ---------------------------------------------------------|
 ---------------------------------------------------------|
 ---------------------------------------------------------|
 ---------------------------------------------------------|
 -0-0-0-0------000-0-0-0-0-----0-0-0-0------000-0-0-0-0---|

| | | |
0:49
B R B R B
 
 ----------------------------------------------------------------|
 ----------------------------------------------------------------|
 ----------------------------------------------------------------|
 ----------------------------------------------------------------|
 ----------------------------------------------------------------|
 -0-0-0-0-0-0-0-0-0-0-0-0-0-0-0---0-0-0-0-0-0-0-0-0-0-0-0-0-0-0--|

* * * * | * * * * |
B R B R B
 
 ----------------------------------------------------------------|
 ----------------------------------------------------------------|
 ----------------------------------------------------------------|
 ----------------------------------------------------------------|
 ----------------------------------------------------------------|
 -0-0-0-0-0-0-0-0-0-0-0-0-0-0-0---0-0-0-0-0-0-0-0-0-0-0-0-0-0-0--|

* * * * | * * * * |
1:00
 
 -----------------------------------------------------------------------|
 -----------------------------------------------------------------------|
 -----------------------------------------------------------------------|
 -----------------------------------------------------------------------|
 -----------------------------------------------------------------------|
 -0-0-0-0-00000000-0--0--0--00000000-0-0-0-0-00000000-0--0--0--0--0--0--|

* * * * ******** * * * ******** * * * * ******** * * * * * *
L
 
 ---------------------------------------------------------------------------|
 ---------------------------------------------------------------------------|
 ---------------------------------------------------------------------------|
 ---------------------------------------------------------------------------|
 ---------------------------------------------------------------------------|
 0-0-0-0-00000000-0--0--0--00000000-0-0-0-0-00000000-12-12-12-12-12-12-12-12|

* * * * ******** * * * ******** * * * * ********
1:11
[1]  
 
 ----------------------------------------------------------------------|
 ----------------10---10-10---8---8-8----------------------------------|
 -7-7-7-7-7-7-7-----------------------/10--10-9--9-9-9-9-9-9-9-9-9-10--|
 ----------------------------------------------------------------------|
 ----------------------------------------------------------------------|
 ----------------------------------------------------------------------|

[2]  
 
 --------------------------------------------------------------------------|
 --------------------------------------------------------------------------|
 --------------------------------------------------------------------------|
 -----------------------------------12--12-12--12-12-12--12-12-12--12-14-14|
 -----------------------------------10--10-10--10-10-10--10-10-10--10-12-12|
 0--0-0-0-0-0--15--15-15-14--14-14--10--10-10--10-10-10--10-10-10--10/12-12|

[1]  
 
 -------------------------------------------------------------------|
 ---------------10--10-10-8--8-8-8/13-13-13-13-13-13-13-13------\---|
 -9/10-7--7-7-7-----------------------------------------------------|
 -------------------------------------------------------------------|
 -------------------------------------------------------------------|
 -------------------------------------------------------------------|

[2]  
 
 --------------------------------------------------------------------------|
 --------------------------------------------------------------------------|
 --------------------------------------------------------------------------|
 ------------------------------------12--12-12-12-12-12-12-12--------------|
 ------------------------------------10--10-10-10-10-10-10-10-7-7-7-7-5-5-5|
 0--0-0--0-0-0--15--15-15-14--14-14--10--10-10-10-10-10-10-10-7-7-7-7-5-5-5|

* * * * * * *
1:22
[1]  
 
 ----------------------------------------------------------------------|
 ----------------10---10-10---8---8-8----------------------------------|
 -7-7-7-7-7-7-7-----------------------/10--10-9--9-9-9-9-9-9-9-9-9-10--|
 ----------------------------------------------------------------------|
 ----------------------------------------------------------------------|
 ----------------------------------------------------------------------|

[2]  
 
 --------------------------------------------------------------------------|
 --------------------------------------------------------------------------|
 --------------------------------------------------------------------------|
 -----------------------------------12--12-12--12-12-12--12-12-12--12-14-14|
 -----------------------------------10--10-10--10-10-10--10-10-10--10-12-12|
 0--0-0--0-0-0-15--15-15-14--14-14--10--10-10--10-10-10--10-10-10--10/12-12|

[1]  
 
 -------------------------------------------------------------------|
 ---------------10--10-10-8--8-8-8/13-13-13-13-13-13-13-13------\---|
 -9/10-7--7-7-7-----------------------------------------------------|
 -------------------------------------------------------------------|
 -------------------------------------------------------------------|
 -------------------------------------------------------------------|

[2]  
 
 -----------------------------------------------------------------------|
 -----------------------------------------------------------------------|
 -----------------------------------------------------------------------|
 ------------------------------------12--12-12-12-12-12-12-14-----------|
 ------------------------------------10--10-10-10-10-10-10-12-7-7-7--5-5|
 0--0-0--0-0-0--15--15-15-14--14-14--10--10-10-10-10-10-10/12-7-7-7--5-5|

* * * * *
1:33
L
 
 --------------------------------------------------------------------|
 -666666555555---------------------666666555555----------------------|
 -------------55555522222222222222-------------55555577777777777777--|
 --------------------------------------------------------------------|
 --------------------------------------------------------------------|
 --------------------------------------------------------------------|

R
 
 -----------------------------------------------------------------------|
 101010101010888888--------------------101010101010888888-------14 TIMES|
 ------------------99999955555555555555------------------99999910-------|
 -----------------------------------------------------------------------|
 -----------------------------------------------------------------------|
 -----------------------------------------------------------------------|

RYTHM
 
 -----------------------------------------------------------------------|
 -----------------------------------------------------------------------|
 -----------------------------------------------------------------------|
 -----------------------------------------------------------------------|
 -------------12------------------------------------------12---10---7/8-|
 -12-12-12-12----12--0--0--0--0-000-0-0--0--0-000-0-0--88----8----8-----|

| | | | * *** * | | * *** * | ** * *
L
 
 --------------------------------------------------------------------|
 -666666555555---------------------666666555555----------------------|
 -------------55555522222222222222-------------55555577777777777777--|
 --------------------------------------------------------------------|
 --------------------------------------------------------------------|
 --------------------------------------------------------------------|

R
 
 -----------------------------------------------------------------------|
 101010101010888888--------------------101010101010888888-------14 TIMES|
 ------------------99999955555555555555------------------99999910-------|
 -----------------------------------------------------------------------|
 -----------------------------------------------------------------------|
 -----------------------------------------------------------------------|

RYTHM
 
 --------------------------------------------------------------|
 --------------------------------------------------------------|
 ----------------------------------------------------10-12-12--|
 -----------------------------------------------------8-10-10--|
 ---------8- --8--8--8----------8--8----------8----8--8-10-10--|
 -8-8-8-8---8--8--8--8--8-888-8-8--8--8-888-8-8--8-8--8/10-10--|

| | | | * *** * | | * *** * | * |
1:44
[1]  
 
 -16-------16------------------15-------15----------------------|
 -----20------20-------------------18-------18------------------|
 -------20------20-------------------17-------17----------------|
 ---------------------------------------------------------------|
 ---------------------------------------------------------------|
 ---------------------------------------------------------------|

[2]  
 
 ---------------------------------------------------------------|
 ---------------------------------------------------------------|
 ---------------------------------------------------------------|
 -6----------------------------3--------------------------------|
 -6----------------------------3--------------------------------|
 -6----------------------------3--------------------------------|

[1]  
 
 -16-------16------------------15-------15----------------------|
 -----20------20-------------------18-------18------------------|
 -------20------20-------------------17-------17----------------|
 ---------------------------------------------------------------|
 ---------------------------------------------------------------|
 ---------------------------------------------------------------|

[2]  
 
 ---------------------------------------------------------------|
 ---------------------------------------------------------------|
 ---------------------------------------------------------------|
 -6----------------------------3-----------P--------------------|
 -6----------------------------3------------S-------------------|
 -6----------------------------3-------------\------------------|

1:55
[B]  
 
 ------------------------------------------------------------------------|
 ------------------------------------------------------------------------|
 ------------------------------------------------------------------------|
 ----------------------------------------------------------------------3-|
 6-6-6-6----1-1-1-1-3-3-3-3-----3-1-3-5-1-----6-6-6-6---------3--3--3--3-|
 6-6-6-6----1-1-1-1-3-3-3-3-----3-1-3-5-1-----6-6-6-6---------3--3--3--3-|

* * * * * * * * * * * * * * * * | * * * * * * *
 
 -------------------------------------------------------------------|
 -------------------------------------------------------------------|
 -------------------------------------------------------------------|
 -------------------------------1--------------------------------1--|
 -------------------------------1--------------------------------1--|
 -6-6-6-6-886-6-6----6-666-8-10-1---3-3-3-3-553-1-3----3-333-3-5-1--|

* * * * *** * * * *** * * * * * * *** * * * *** * *
L
 
 --------------------------------------------------------------------|
 --------------------------------------------------------------------|
 ---------------------------------------------------101010--13-13-13-|
 ------------------------------1---------------------X-X-X---X--X--X-|
 ------------------------------1---------------------8-8-8--11-11-11-|
 6-6-6-6-886-6-6----6-666-8-10-1---3-3-3-3-553-1-3-------------------|

* * * * *** * * * *** * * * * * * *** * * |
R
 
 ----------------------------------------------------------------------|
 ----------------------------------------------------------------------|
 ----------------------------------------------------13-13-13--17-17-17|
 ------------------------------1----------------------X--X--X---X--X--X|
 ------------------------------1---------------------11-11-11--15-15-15|
 6-6-6-6-886-6-6----6-666-8-10-1---3-3-3-3-553-1-3---------------------|

* * * * *** * * * *** * * * * * * *** * * |
2:19
[1]  
 
 ------20------18------16------15------20------18------16------15-|
 18--18--18--18--18--18--18--18--18--18--18--18--18--18--18--18---|
 --17------17------17------17------17------17------17------17-----|
 -----------------------------------------------------------------|
 -----------------------------------------------------------------|
 -----------------------------------------------------------------|

[2]  
 
 ------------------------------------------------------------------|
 ------------------------------------------------------------------|
 ------------------------------------------------------------------|
 -------------------------------1--------------------------------1-|
 -------------------------------1--------------------------------1-|
 -6-6-6-6-886-6-6----6-666-8-10-1---3-3-3-3-553-1-3----3-333-3-5-1-|

* * * * *** * * * *** * * * * * * *** * * * *** * *
[1]  
 
 ------20------18------16------15------20------18------16------15-|
 18--18--18--18--18--18--18--18--18--18--18--18--18--18--18--18---|
 --17------17------17------17------17------17------17------17-----|
 -----------------------------------------------------------------|
 -----------------------------------------------------------------|
 -----------------------------------------------------------------|

[2]  
 
 -------------------------------------------------------------------|
 -------------------------------------------------------------------|
 -------------------------------------------------------------------|
 -------------------------------1--------------------------------1--|
 -------------------------------1--------------------------------1--|
 -6-6-6-6-886-6-6----6-666-8-10-1---3-3-3-3-553-1-3----3-333-3-5-1--|

* * * * *** * * * *** * * * * * * *** * * * *** * *
[1]  
 
 ------20------18------16------15------20------18------16------15-|
 18--18--18--18--18--18--18--18--18--18--18--18--18--18--18--18---|
 --17------17------17------17------17------17------17------17-----|
 -----------------------------------------------------------------|
 -----------------------------------------------------------------|
 -----------------------------------------------------------------|

[2]  
 
 -----------------------------------------------------------------|
 -----------------------------------------------------------------|
 -----------------------------------------------------------------|
 -3--------------------------------5------------------------------|
 -3--------------------------------5------------------------------|
 -3--------------------------------5------------------------------|

[1]  
 
 ------20------18------16------15------20-------------------------|
 18--18--18--18--18--18--18--18--18--18--18-----------------------|
 --17------17------17------17------17------17---------------------|
 ------------------------------------------------------------0----|
 ------------------------------------------------------------0----|
 ----------------------------------------------5-7-5-3-5-2-7-0----|

[2]  
 
 -----------------------------------------------------------------|
 -----------------------------------------------------------------|
 -----------------------------------------------------------------|
 -6---------------------------------8-----------------------------|
 -6---------------------------------8-----------------------------|
 -6---------------------------------8----------5-7-5-3-5-2-7-0----|

2:44
L
 
 ------------------------------------|
 ------------------------------------|
 ------------------------------------|
 -0----------------------------------|
 -0----------------------------------|
 (0)---------------------------------|

R
 
 -------------------------------------|
 -------------------------------------|
 -------------------------------------|
 -------------------------------------|
 --------12---------------------------|
 12121212--12-0-0-0-0-0-0-0-0-0-0-0-0-|

* * * * * * * * * * * *
L
 
 --------------------------------------------|
 --------------------------------------------|
 --------------------------------------------|
 -0------------------------------------------|
 -0------------------------------------------|
 (0)-----------------------------------------|

R
 
 --------------------------------------------|
 --------------------------------------------|
 --------------------------------------------|
 --------------------------------------------|
 ---------12---------------12----------12----|
 -12121212--12-0-0-0-0-8888--8-10101010--10--|

* * * *
L
 
 ------------------------------------|
 ------------------------------------|
 ------------------------------------|
 -0----------------------------------|
 -0----------------------------------|
 (0)---------------------------------|

R
 
 -------------------------------------|
 -------------------------------------|
 -------------------------------------|
 -------------------------------------|
 --------12---------------------------|
 12121212--12-0-0-0-0-0-0-0-0-0-0-0-0-|

* * * * * * * * * * * *
L
 
 --------------------------------------------|
 --------------------------------------------|
 --------------------------------------------|
 -0------------------------------------------|
 -0------------------------12----------12----|
 (0)-------------------8888--8-10101010--10--|

R
 
 --------------------------------------------|
 --------------------------------------------|
 --------------------------------------------|
 --------------------------------------------|
 ---------12---------------12----------12----|
 -12121212--12-0-0-0-0-8888--8-10101010--10--|

* * * *
[B]  
 
 -------------------------------------|
 -------------------------------------|
 -------------------------------------|
 -------------------------------------|
 --------12---------------------------|
 12121212--12-0-0-0-0-0-0-0-0-0-0-0-0-|

* * * * * * * * * * * *
 
 --------------------------------------------|
 --------------------------------------------|
 --------------------------------------------|
 --------------------------------------------|
 ---------12---------------12----------12----|
 -12121212--12-0-0-0-0-8888--8-10101010--10--|

* * * *
3:01
L
 
 -------------------------------------------------------------------|
 -------------------------------------------------------------------|
 -------------------------------------------------------------------|
 -------------------------------------------------------------------|
 --------12-------------------12-------------------12-----------0---|
 12121212--12-0-0-0-0-12121212--12-0-0-0-0-12121212--12-0-0-0-0-0---|

* * * * * * * * * * * * |
R
 
 -------------------------------------------------------------------|
 -------------------------------------------------------------------|
 -------------------------------------------------------------------|
 -------------------------------------------------------------0-----|
 ---------8-------------------8-------------------8-----------0-----|
 -8-8-8-8---8-0-0-0-0-8-8-8-8---8-0-0-0-0-8-8-8-8---8-0-0-0-0-0-----|

* * * * * * * * * * * * |
3:07
[B]  
 
 ------------------------------------------------------------------------|
 ------------------------------------------------------------------------|
 ------------------------------------------------------------------------|
 ------------------------------------------------------------------------|
 -------------12------------------------------------------12---10---7/8--|
 -12-12-12-12----12--0--0--0--0-000-0-0--0--0-000-0-0--88----8----8------|

| | | | * *** * | | * *** * | ** * *
 
 ---------------------------------------------------------------|
 ---------------------------------------------------------------|
 ----------------------------------------------------10-12-12-R-|
 -----------------------------------------------------8-10-10-R-|
 ---------8----8--8--8----------8--8----------8----8--8-10-10---|
 -8-8-8-8---8--8--8--8--8-888-8-8--8--8-888-8-8--8-8--8/10-10---|

| | | | * *** * | | * *** * | * |
3:17
L
 
 ----------------------------------------------------------------------------|
 ----------------------------------------------------------------------------|
 ----------------------------------------------------------------------------|
 ----------------------------------------------------------------------------|
 ----------------------------------------------------------------------------|
 12-12-12-12-12-12-12-12-12-12-12-12-12-12-12-12-12-12-12-12-12-12-12-12-12--|

R
 
 ----------------------------------------------------------------------------|
 ----------------------------------------------------------------------------|
 ----------------------------------------------------------------------------|
 ----------------------------------------------------------------------------|
 ----------------------------------------------------------------------------|
 ------------------------------------------------15-15-15-15-15-15-15-15-15--|

OVERDUB
 
 ------------------------------------------------10------10------------------|
 ------------------------------------------------------------13-----------R--|
 ----------------------------------------------------------------12-------12~|
 ----------------------------------------------------------------------------|
 ----------------------------------------------------------------------------|
 ----------------------------------------------------------------------------|

3:25
[1]  
 
 ----------------------------------------------------------------------|
 ----------------10---10-10---8---8-8----------------------------------|
 -7-7-7-7-7-7-7-----------------------/10--10-9--9-9-9-9-9-9-9-9-9-10--|
 ----------------------------------------------------------------------|
 ----------------------------------------------------------------------|
 ----------------------------------------------------------------------|

[2]  
 
 --------------------------------------------------------------------------|
 --------------------------------------------------------------------------|
 --------------------------------------------------------------------------|
 -----------------------------------12--12-12--12-12-12--12-12-12--12-14-14|
 -----------------------------------10--10-10--10-10-10--10-10-10--10-12-12|
 0--0-0-0-0-0--15--15-15-14--14-14--10--10-10--10-10-10--10-10-10--10/12-12|

[1]  
 
 -------------------------------------------------------------------|
 ---------------10--10-10-8--8-8-8/13-13-13-13-13-13-13-13------\---|
 -9/10-7--7-7-7-----------------------------------------------------|
 -------------------------------------------------------------------|
 -------------------------------------------------------------------|
 -------------------------------------------------------------------|

[2]  
 
 ------------------------------------------------------------------------|
 ------------------------------------------------------------------------|
 ------------------------------------------------------------------------|
 ------------------------------------12--12-12-12-12-12-12-12------------|
 ------------------------------------10--10-10-10-10-10-10-10-7-7-7--5-5-|
 0--0-0--0-0-0--15--15-15-14--14-14--10--10-10-10-10-10-10-10-7-7-7--5-5-|

* * * * *
[1]  
 
 ----------------------------------------------------------------------|
 ----------------10---10-10---8---8-8----------------------------------|
 -7-7-7-7-7-7-7-----------------------/10--10-9--9-9-9-9-9-9-9-9-9-10--|
 ----------------------------------------------------------------------|
 ----------------------------------------------------------------------|
 ----------------------------------------------------------------------|

[2]  
 
 --------------------------------------------------------------------------|
 --------------------------------------------------------------------------|
 --------------------------------------------------------------------------|
 -----------------------------------12--12-12--12-12-12--12-12-12--12-14-14|
 -----------------------------------10--10-10--10-10-10--10-10-10--10-12-12|
 0--0-0--0-0-0--15--15-15-14--14-14-10--10-10--10-10-10--10-10-10--10/12-12|

[1]  
 
 -------------------------------------------------------------------|
 ---------------10--10-10-8--8-8-8/13-13-13-13-13-13-13-13------\---|
 -9/10-7--7-7-7-----------------------------------------------------|
 -------------------------------------------------------------------|
 -------------------------------------------------------------------|
 -------------------------------------------------------------------|

[2]  
 
 -----------------------------------------------------------------------|
 -----------------------------------------------------------------------|
 -----------------------------------------------------------------------|
 ------------------------------------12--12-12-12-12-12-12-14-----------|
 ------------------------------------10--10-10-10-10-10-10-12-7-7-7--5-5|
 0--0-0--0-0-0--15--15-15-14--14-14--10--10-10-10-10-10-10/12-7-7-7--5-5|

* * * * *
3;47
 
 -----------------------------------------------------------------------|
 -----------------------------------------------------------------------|
 -----------------------------------------------------------------------|
 -----------------------------------------------------------------------|
 -----------------------------------------------------------------------|
 -0-0-0-0-00000000-0--0--0--00000000-0-0-0-0-00000000-0--0--0--0--0--0--|

* * * * ******** * * * ******** * * * * ******** * * * * * *
 
 -----------------------------------------------------------------------|
 -----------------------------------------------------------------------|
 -----------------------------------------------------------------------|
 -----------------------------------------------------------------------|
 -----------------------------------------------------------------------|
 -0-0-0-0-00000000-0--0--0--00000000-0-0-0-0-00000000-0--0--0--0--0--0--|

* * * * ******** * * * ******** * * * * ******** * * * * * *
3:58
L
 
 ---------------------------------------------------------------|
 ---------------------------------------------------------------|
 ---------------------------------------------------------------|
 ---------------------------------------------------------------|
 --------12-------------------12-------------------12-----------|
 12121212--12-0-0-0-0-12121212--12-0-0-0-0-12121212--12-0-0-0-0-|

* * * * * * * * * * * *
R
 
 --------------------------------------------------------------|
 --------------------------------------------------------------|
 --------------------------------------------------------------|
 --------------------------------------------------------------|
 ---------8-------------------8-------------------8------------|
 -8-8-8-8---8-0-0-0-0-8-8-8-8---8-0-0-0-0-8-8-8-8---8-0-0-0-0--|

* * * * * * * * * * * *
[B]  
 
 ------------------------------|
 ------------------------------|
 ------------------------------|
 ------------------------------|
 -----12----------12---0-------|
 -8888--8-10101010--10-0-------|

|

Important: The song above is NOT stored on the Chordie server. The original song is hosted at www.guitaretab.com. Chordie works as a search engine and provides on-the-fly formatting. Chordie does not index songs against artists'/composers' will. To remove this song please click here.

Text color:
Chord color:
Chord grids: 
Font size:    
Page size: 

B
Rate #1 of 1 versions

Jango Player

Login - add to songbook

SHARE PAGE  



You need to log in to post comments