Guitar Tabs, Chords and Lyrics
Server problems seems to be fixed. Chordie has been experiencing problems with songs disappearing. These issues now seems to be fixed, but still verifying the fix. If you find anything strange, please email admin@chordie.com.


Atlas  Parkway Drive

TABBED BY andherembrace
acousic guitars arranged for D-G-C-F-A-D
electric guitars B-F#-B-E-G#C#
[A]  
 
 -2----------2------2--------------2----------2------2---------------|
 -3----------3------3--------------3----------3------3---------------|
 -0----------0------4--------------0----------0------4---------------|
 -5----------4------2--------------5----------4------2---------------|
 --------------------------------------------------------------------|
 --------------------------------------------------------------------|
 -2----------2------2--------------2----------2------2---------------|
 -3----------3------3--------------3----------3------3---------------|
 -0----------0------4--------------0----------0------4---------------|
 -5----------4------2--------------5----------4------2---------------|
 --------------------------------------------------------------------|
 --------------------------------------------------------------------|

^
 
 -2-3-0------------------------------------------|
 ------------------------------3---3-5---5-------|
 ------------------------------5---5-7---7-------|
 ------------------------------5---5-7---7-------|
 --------2---------------------3---3-5---5-------|
 ----------0-------------------------------------|

w/pedal +1 octave
^
 
 -2-3-0------------------------------------------|
 ------------------------------7---7-5---3-5-----|
 ------------------------------9---9-7---5-7-----|
 ------------------------------9---9-7---5-7-----|
 --------2---------------------7---7-5---3-5-----|
 ----------0-------------------------------------|

0:54
w/intro again
L
 
 ----------------------------------------------|
 ----------------------------------------------|
 --------/8~-------------------------8---------|
 -6------------8~----3------6-666666---8-10-8--|
 -6------------------3-------------------------|
 -6------------------3-------------------------|

* ******
R
 
 ----------------------------------------------|
 ----------------------------------------------|
 ------------------------------------5---------|
 -6-----/10~---------3------3-333333---5-6-5---|
 -6-----------10~----3-------------------------|
 -6------------------3-------------------------|

* ******
L
 
 ----------------------------------------------|
 ----------------------------------------------|
 --------/8~-----------------------------------|
 -6------------8~----3-------------------------|
 -6------------------3-------------------------|
 -6------------------3-------3-3333333---------|

* *******
R
 
 ----------------------------------------------|
 ----------------------------------------------|
 ----------------------------------------------|
 -6-----/10~---------3-------------------------|
 -6-----------10~----3-------------------------|
 -6------------------3-------3-3333333---------|

* *******
1:09
[A]  
 
 -----10--14--10--12--10--10------------------------------|
 10-12--12--12--12--12--12--10-12-------------------------|
 ---------------------------------------------------------|
 ---------------------------------------------------------|
 ---------------------------------------------------------|
 ---------------------------------------------------------|

[1]  
 
 ---------------------------------------------------------|
 ---------------------------------------------------------|
 ---------------------------------------------------------|
 ---------------------------------------------------------|
 -1-------------------------------------------------------|
 -1--------/6~~-5~~-3-3333333-----------3-3333333---------|

* ******* * *******
[2]  
 
 ---------------------------------------------------------|
 ---------------------------------------------------------|
 ----------------------------8-------------------8--------|
 -------------------6-666666---8-10-8---6-666666---8-10-8-|
 ---------------------------------------------------------|
 ---------------------------------------------------------|

3 * ****** * ******
 
 ---------------------------------------------------------|
 ---------------------------------------------------------|
 ----------------------------5-------------------5--------|
 -------------------3-333333---5-6-5----3-333333---5-6-5--|
 ---------------------------------------------------------|
 ---------------------------------------------------------|

* ****** * ******
acoustic
 
 -----10--14--10--12--10--10------------------------------|
 10-12--12--12--12--12--12--10-12-------------------------|
 ---------------------------------------------------------|
 ---------------------------------------------------------|
 ---------------------------------------------------------|
 ---------------------------------------------------------|

[1]  
 
 ---------------------------------------------------------|
 ---------------------------------------------------------|
 ---------------------------------------------------------|
 ---------------------------------------------------------|
 -1-------------------------------------------------------|
 -1--------/6~~-5~~-3-3333333-----------3-3333333---------|

* ******* * *******
[2]  
 
 ---------------------------------------------------------|
 ---------------------------------------------------------|
 ----------------------------8-------------------8--------|
 -------------------6-666666---8-10-8---6-666666---8-10-8-|
 ---------------------------------------------------------|
 ---------------------------------------------------------|

3 * ****** * ******
 
 ---------------------------------------------------------|
 ---------------------------------------------------------|
 ----------------------------5-------------------5--------|
 -------------------3-333333---5-6-5----3-333333---5-6-5--|
 ---------------------------------------------------------|
 ---------------------------------------------------------|

* ****** * ******
1;24
acoustic 1
 
 --8-----------------------10-----------------------------------|
 --8-----------------------10-----------------------------------|
 -10-----------------------12-----------------------------------|
 -10-----------------------12-----------------------------------|
 ---------------------------------------------------------------|
 ---------------------------------------------------------------|

acoustic 2 finger picked
 
 ---------15--14--10-------------15--14--10---------------------|
 ---------------------------------------------------------------|
 ---------12--11---7-------------12--11---7---------------------|
 ---------------------------------------------------------------|
 ---------------------------------------------------------------|
 ---------------------------------------------------------------|

acoustic
 
 -----------------------------------------------------------------|
 -----------------------------------------------------------------|
 -----7----7---4-------7---7---4----------------------------------|
 -----------------------------------------------------------------|
 ----10---10---7-------9---9---5----------------------------------|
 -0-----0----0-----------0---0------------------------------------|

L
 
 -----------------------------------------------------------------|
 -----------------------------------------------------------------|
 ------------10---------------------------------------------------|
 ----/10--8---------/10--8--6-------------------------------------|
 -------------------------------1---------------3-----------------|
 -------------------------------1------/6~--5~--3-----------------|

R
 
 -----------------------------------------------------------------|
 -----------------------------------------------------------------|
 -----------5-----------------------------------------------------|
 ----/6--5----------/6--5-----------------------------------------|
 --------------------------6----1---------------3-----------------|
 -------------------------------1------/6~--5~--3-----------------|

1;40
L
 
 ---------------------------------------------------------------------------|
 ---------------------------------------------------------------------------|
 ----10-----6---6-8---8-----------------10-----13---13-1210-12--------------|
 -----X-----X---X-X---X------------------X------X----X--X-X--X--------------|
 -3---8-----4---4-6---6-----6-8------3---8-----11---11\10-8/10-----6-8------|
 -3-----------------------------10-8-3---------------------------------10-8-|

R
 
 ---------------------------------------------------------------------------|
 ---------------------------------------------------------------------------|
 ----10-----6---6-8---8-----------------17-----17---17-15-13-15-------------|
 -----X-----X---X-X---X------------------X------X----X--X--X--X-------------|
 -3---8-----4---4-6---6-----6-8------3--15-----15---15\13-11/13----6-8------|
 -3-----------------------------10-8-3---------------------------------10-8-|

L
 
 ----------------------------------------------------------------------|
 ----------------------------------------------------------------------|
 ----10-----6---6-8---8-----------------10-----13---13-1210-9----------|
 -----X-----X---X-X---X------------------X------X----X--X-X-X----------|
 -3---8-----4---4-6---6-----6-8------3---8-----11---11\10-8-7----------|
 -3-----------------------------10-8-3---------------------------------|

R
 
 ----------------------------------------------------------------------|
 ----------------------------------------------------------------------|
 ----10-----6---6-8---8-----------------17-----17---17-15-13-12--------|
 -----X-----X---X-X---X-----5-6----------X------X----X--X--X--X--------|
 -3---8-----4---4-6---6----------6-4-3--15-----15---15\13-11-10--------|
 -3----------------------------------3---------------------------------|

2:12
 
 ---------------------------------------------------------------------|
 ---------------------------------------------------------------------|
 -4-6-6--6-6---------4-6-6-111111-----4-6-6--6-6---------4-6-6-11-9-11|
 -4-6-6--6-6---------4-6-6--9-9-9-----4-6-6--6-6---------4-6-6--9-9-9-|
 -2-4-4--4-4---------2-4-4--9-9-9-----2-4-4--4-4---------2-4-4--9-9-9-|
 ---------------------------------------------------------------------|
 -12-13-12----------12-13-12----------12-13-12---------12-13-12----------|
 ----------13----13----------13----13---------13----13----------13----13-|
 -------------14----------------14---------------14----------------14----|
 ------------------------------------------------------------------------|
 ------------------------------------------------------------------------|
 ------------------------------------------------------------------------|
 ----------------------------------------------------------------7-7-7---|
 ----------------------------------------------------------------8-8-8---|
 -6-8--8-8-8-----6-8--8-8-8-11-9-8----6-8--8-8-8-----6-8--8-8-8--8-8-8---|
 -4-6--6-6-6-----4-6--6-6-6--9-7-6----4-6--6-6-6-----4-6--6-6-6--6-6-6---|
 -4-6--6-6-6-----4-6--6-6-6--9-7-6----4-6--6-6-6-----4-6--6-6-6--6-6-6---|
 ------------------------------------------------------------------------|

acoustic
 
 ---------------------------------------------------------------------|
 ---------------------------------------------------------------------|
 -4-6-6--6-6---------4-6-6-111111-----4-6-6--6-6---------4-6-6-11-9-11|
 -4-6-6--6-6---------4-6-6--9-9-9-----4-6-6--6-6---------4-6-6--9-9-9-|
 -2-4-4--4-4---------2-4-4--9-9-9-----2-4-4--4-4---------2-4-4--9-9-9-|
 ---------------------------------------------------------------------|

R
 
 ----------15--------17------------------------15---------17----------|
 -------------15----------------------------------15------------------|
 ----------------17----------------------------------17---------------|
 ---------------------------------------------------------------------|
 ---------------------------------------------------------------------|
 ---------------------------------------------------------------------|

2:33
acoustic
 
 ----------------------------------------------------------------7-7-7---|
 ----------------------------------------------------------------8-8-8---|
 -6-8--8-8-8-----6-8--8-8-8-11-9-8----6-8--8-8-8-----6-8--8-8-8--8-8-8---|
 -4-6--6-6-6-----4-6--6-6-6--9-7-6----4-6--6-6-6-----4-6--6-6-6--6-6-6---|
 -4-6--6-6-6-----4-6--6-6-6--9-7-6----4-6--6-6-6-----4-6--6-6-6--6-6-6---|
 ------------------------------------------------------------------------|

grad increase to 2 steps
dist. _______ ___________ )
 
 -------------) (-----------------) (----15------------------|
 -----13-15-15--------13-15---------15------------13---------------------|
 -/14------------------------14~-----------------------------------------|
 ------------------------------------------------------------------------|
 ------------------------------------------------------------------------|
 ------------------------------------------------------------------------|

acoustic
 
 ---------------------------------------------------------------------|
 ---------------------------------------------------------------------|
 -4-6-6-6--4-6-6-6--4-6-6-6--4-6-4---4-6-6-6--4-6-6-6--4-6-6-6--9-9-9-|
 -4-6-6-6--4-6-6-6--4-6-6-6--4-6-4---4-6-6-6--4-6-6-6--4-6-6-6--7-7-7-|
 -2-4-4-4--2-4-4-4--2-4-4-4--2-4-2---2-4-4-4--2-4-4-4--2-4-4-4--7-7-7-|
 ---------------------------------------------------------------------|

2:49
acoustic
 
 ----------------------------------------------------------------7-7-7---|
 ----------------------------------------------------------------8-8-8---|
 -6-8--8-8-8-----6-8--8-8-8-11-9-8----6-8--8-8-8-----6-8--8-8-8--8-8-8---|
 -4-6--6-6-6-----4-6--6-6-6--9-7-6----4-6--6-6-6-----4-6--6-6-6--6-6-6---|
 -4-6--6-6-6-----4-6--6-6-6--9-7-6----4-6--6-6-6-----4-6--6-6-6--6-6-6---|
 ------------------------------------------------------------------------|

dist. ____
 
 -----)()()(---) ----/22-------20-----------------15------------|
 -15---------15------------20-18----18-17-15--17-18----18-17-15---|
 ------------ph---------------------------------------------------|
 -----------------------------------------------------------------|
 -----------------------------------------------------------------|
 -----------------------------------------------------------------|

acoustic
 
 ---------------------------------------------------------------------|
 ---------------------------------------------------------------------|
 -4-6-6-6--4-6-6-6--4-6-6-6--4-6-4---4-6-6-6--4-6-6-6--4-6-6-6--9-9-9-|
 -4-6-6-6--4-6-6-6--4-6-6-6--4-6-4---4-6-6-6--4-6-6-6--4-6-6-6--7-7-7-|
 -2-4-4-4--2-4-4-4--2-4-4-4--2-4-2---2-4-4-4--2-4-4-4--2-4-4-4--7-7-7-|
 ---------------------------------------------------------------------|

dist.
 
 --------------------------------------------------------------------------|
 --------------------------------------------------------------------------|
 7-7-7--7-7--7--7--9-9-9--9-9--9--9-101010-1010-10-10--12-12-12-15-15-15-15|
 x-x-x--x-x--x--x--x-x-x--x-x--x--x--x-x-x--x-x--x--x---x--x--x--x--x--x--x|
 5-5-5--5-5--5--5--7-7-7--7-7--7--7--8-8-8--8-8--8--8--10-10-10-13-13-13-12|
 --------------------------------------------------------------------------|

3:08
L
 
 ------------------------------------------------------------------------|
 ------------------------------------------------------------------------|
 -------7-----3---3-5---5------------------7----10--10-9--7-9------------|
 -------X-----X---X-X---X------------------X-----X---X-X--X-X------------|
 -0-----5-----1---1-3---3----3-5-----0-----5-----8---8-7--5/7----3-5-----|
 -0------------------------------7-5-0-------------------------------7-5-|

R
 
 ------------------------------------------------------------------------|
 ------------------------------------------------------------------------|
 -------7---10---10-12--12----------------10-----14--14-1210-12----------|
 -------X----X----X--X---X-----------------X------X---X--X-X--X----------|
 -0-----5----8----8-10--10----3-5-----0----8-----12--12-10-8/10---3-5----|
 -0-------------------------------7-5-0-------------------------------7-5|

L
 
 ------------------------------------------------------------------------|
 ------------------------------------------------------------------------|
 -------7-----3---3-5---5------------------7----10--10-9--7-9------------|
 -------X-----X---X-X---X------------------X-----X---X-X--X-X------------|
 -0-----5-----1---1-3---3----3-5-----0-----5-----8---8-7--5-7------------|
 -0------------------------------7-5-0-----------------------------------|

R
 
 ------------------------------------------------------------------------|
 ------------------------------------------------------------------------|
 -------7---10---10-12--12----------------10-----14--14-1210-12----------|
 -------X----X----X--X---X-----------------X------X---X--X-X--X----------|
 -0-----5----8----8-10--10----3-5-----0----8-----12--12-10-8-10----------|
 -0-------------------------------7-5-0----------------------------------|

[B]  
 
 -------------------------------------------------------------|
 -------------------------------------------------------------|
 ------9-7-----5-7--------------------------------------------|
 ------X-X-----X-X--------------------------------------------|
 ------7-5-----3-5--------------------------------------------|
 -------------------------------------------------------------|


Important: The song above is NOT stored on the Chordie server. The original song is hosted at www.guitaretab.com. Chordie works as a search engine and provides on-the-fly formatting. Chordie does not index songs against artists'/composers' will. To remove this song please click here.

Text color:
Chord color:
Chord grids: 
Font size:    
Page size: 

A B
Rate #1 of 2 versions

Jango Player

Login - add to songbook

SHARE PAGE  




You need to log in to post comments