Guitar Tabs, Chords and Lyrics
Server problems seems to be fixed. Chordie has been experiencing problems with songs disappearing. These issues now seems to be fixed, but still verifying the fix. If you find anything strange, please email admin@chordie.com.


So Bad  Paul McCartney

 
 ------------------------------------------------------------

PAUL McCARTNEY ? SO BAD (P McCartney) From PIPES OF PEACE
album. Released on 1983.
 
 ------------------------------------------------------------

INTRO
[C]  
 
 e|---------------------------------|---------------------------------|
 B|---------------------5-----------|---------------------5-----------|
 G|---------7---7---7---------------|---------7---7---7-----------4---|
 D|---------------------------------|-------------------------5-------|
 A|---------------------------------|---------------------------------|
 E|---------------------------------|---------------------------------|
 e|-3-------------------------------|-3-------------------------------|
 B|-1-------------------------------|-1-------------------------------|
 G|-0-------------------------------|-0-------------------------------|
 D|-2-------------------------------|-2-------------------------------|
 A|-3-------------------------------|-3-------------------------------|
 E|---------------------------------|---------------------------------|

[G]  
 
 e|-----------------------------3---|---------------------------------|
 B|---------------------------------|-------------------------3-------|
 G|-------------4---4---------------|-------------------------4-------|
 D|-----------------------------5---|-5---5-------------------5-------|
 A|---------------------------------|---------------------------------|
 E|---------------------------------|---------------------------------|
 e|---------------------------------|---------------------------------|
 B|-0-------------------------------|-0---0-------0-------0---0---0---|
 G|-0-------------------------------|-0---0-------0-------0---0---0---|
 D|-0-------------------------------|-0---0-------0-------0---0---0---|
 A|-2-------------------------------|-2---2-------2-------2---2---2---|
 E|-3-------------------------------|-3---3-------3-------3---3---3---|

VERSE
00:11
[G] [Em]  
 
 e|---------3-------3---3-------3---|---------3---3-------3---3-------|
 B|---------3-------3---3-------3---|---------5---5-------5---5-------|
 G|---------4-------4---4-------4---|---------4---4-------4---4-------|
 D|---------5-------5---5-------5---|---------5---5-------5---5-------|
 A|---------5-------5---5-------5---|---------------------------------|
 E|-3-------3-------3---3-------3---|---------------------------------|

There is a pain inside my heart
[Bm] [C]  
 
 e|-------------2-------2---2-------|-3-----------3---3---------------|
 B|-------------3-------3---3-------|-5-----------5---5-------5-------|
 G|-------------4-------4---4-------|-5-----------5---5---5---5---5---|
 D|-------------4-------4---4-------|-5-----------5---5---5---5---5---|
 A|-------------2-------2---2-------|-3-----------3---3---3---3---3---|
 E|---------------------------------|---------------------------------|

you mean so much to me
CHORUS
00:22
 
 e|-3-----------3---3---------------|-3-----------3---3---------------|
 B|-5-----------5---5---------------|-5-----------5---5---------------|
 G|-5-----------5---5---------------|-5-----------5---5-------5-------|
 D|-5-----------5---5---------------|-5-----------5---5-------5-------|
 A|-3-----------3---3---------------|-3-----------3---3-------3-------|
 E|---------------------------------|---------------------------------|

Girl, love girl, love so bad
I you I you
[G]  
 
 e|-3-------3-----------3---3---3---|-----3---3---3-------3---3-------|
 B|-3-------3-----------3---3---3---|-3---3---3---3-------3---3-------|
 G|-4-------4-----------4---4---4---|-4---4---4---4-------4---4-------|
 D|-5-------5-----------5---5---5---|-5---5---5---5-------5---5-------|
 A|-5-------5-----------5---5---5---|-5---5---5---5-------5---5-------|
 E|-3-------3-----------3---3---3---|-3---3---3---3-------3---3-------|

VERSE
00:33
[Em]  
 
 e|-3---------------3---3-------3---|---------3-----------3---3-------|
 B|-3---3-----------3---3-------3---|---------5-----------5---5-------|
 G|-4---4-----------4---4-------4---|---------4-----------4---4-------|
 D|-5---5-----------5---5-------5---|---------3-----------5---5-------|
 A|-5---5-----------5---5-------5---|---------------------------------|
 E|-3---3-----------3---3-------3---|---------------------------------|

And if you leave my pain will grow
[Bm] [C]  
 
 e|-2---2-------2-----------2-------|-3-----------3-----------3-------|
 B|-3---3-------3-----------3-------|-5-----------5-----------5-------|
 G|-4---4-------4-----------4-------|-5-----------5-----------5---5---|
 D|-4---4-------4-----------4-------|-5-----------5-----------5---5---|
 A|-2---2-------2-----------2-------|-3-----------3-----------3---3---|
 E|---------------------------------|---------------------------------|

but that's good to me
no
CHORUS
00:44
 
 e|-3-----------3---3-----------3-3-|-3-----------3---3---3-----------|
 B|-5-----------5---5-----------5-5-|-5-----------5---5---5-----------|
 G|-5-----------5---5-----------5-5-|-5-----------5---5---5-----------|
 D|-5-----------5---5-----------5-5-|-5-----------5---5---5-----------|
 A|-3-----------3---3-----------3-3-|-3-----------3---3---3-----------|
 E|---------------------------------|---------------------------------|

Girl, love yes, I love so bad
I you you
[G] [Bm7] [Em]  
 
 e|-3-----------3---3---3-------3---|-3---------------7---7-------7---|
 B|-3-----------3---3---3-------3---|-3---3-----------7---7-------8---|
 G|-4-----------4---4---4-------4---|-4---4-----------7---7-------9---|
 D|-5-----------5---5---5-------5---|-5---5-----------7---7-------9---|
 A|-5-----------5---5---5-------5---|-5---5-----------9---9-------7---|
 E|-3-----------3---3---3-------3---|-3---3-----------7---7-----------|

Well, so good
it
feels
BRIDGE
00:54
[Bm7] [Em]  
 
 e|-------------7---------------7---|-----------------7---7-------7---|
 B|-------------8---------------8---|-----------------7---7-------8---|
 G|-------------9---------------9---|-----------------7---7-------9---|
 D|-------------9---------------9---|-----------------7---7-------9---|
 A|-------------7---------------7---|-----------------9---9-------7---|
 E|---------------------------------|-----------------7---7-----------|

Sometimes feels bad
It so
[Bm] [C]  
 
 e|-------------7---------------7---|-----------------7---7-------8---|
 B|-------------8---------------8---|-----------------7---7-------8---|
 G|-------------9---------------9---|-----------------7---7-------9---|
 D|-------------9---------------9---|-----------------9---9------10---|
 A|-------------7---------------7---|-----------------9---9------10---|
 E|---------------------------------|-----------------7---7-------8---|

This worse
[is] 
[Bm] [Am] [A/C#] [Dsus4]  
 
 e|-------------8-8-7---7-------5---|-----------------5---5-------5---|
 B|-------------8-8-7---7-------5---|-----------------5---5-------8---|
 G|-------------9-9-7---7-------5---|-----------------6---6-------7---|
 D|------------1010-9---9-------7---|-----------------------------7---|
 A|------------1010-9---9-------7---|-----------------4---4-------5---|
 E|-------------8-8-7---7-------5---|---------------------------------|

than I ever had
anything
[D]  
 
 e|---------5---5---------------5---|-5---5-------5-----------5-------|
 B|---------8---8---------------8---|-7---7-------7-----------7-------|
 G|---------7---7---------------7---|-7---7-------7-----------7-------|
 D|---------7---7---------------7---|-7---7-------7-----------7-------|
 A|---------5---5---------------5---|-5---5-------5-----------5-------|
 E|---------------------------------|---------------------------------|

VERSE
01:16
There was a pain
But now you're here
And I don't fear a thing
CHORUS
01:27
[C]  
 
 e|---------3---3---3---3-------3-3-|-3-----------3---3---3---3-------|
 B|---------5---5---5---5-------5-5-|-5-----------5---5---5---5-------|
 G|---------5---5---5---5-------5-5-|-5-----------5---5---5---5-------|
 D|---------5---5---5---5-------5-5-|-5-----------5---5---5---5-------|
 A|---------3---3---3---3-------3-3-|-3-----------3---3---3---3-------|
 E|---------------------------------|---------------------------------|

Girl, love yes, I love so bad
I you you
[G]  
 
 e|-3---3-------3---------------3---|-3---3---3---3-------3---3-------|
 B|-3---3-------3---3-----------3---|-3---3---3---3-------3---3-------|
 G|-4---4-------4---4-----------4---|-4---4---4---4-------4---4-------|
 D|-5---5-------5---5-----------5---|-5---5---5---5-------5---5-------|
 A|-5---5-------5---5-----------5---|-5---5---5---5-------5---5-------|
 E|-3---3-------3---3-----------3---|-3---3---3---3-------3---3-------|

and she say
[C]  
 
 e|-3-----------3---3---3-----------|-3-----------3---3---3---3-------|
 B|-5-----------5---5---5-----------|-5-----------5---5---5---5-------|
 G|-5-----------5---5---5-----------|-5-----------5---5---5---5-------|
 D|-5-----------5---5---5-----------|-5-----------5---5---5---5-------|
 A|-3-----------3---3---3-----------|-3-----------3---3---3---3-------|
 E|---------------------------------|---------------------------------|

Boy I love boy, I love so bad
you you
SOLO
01:44
[G] [Em]  
 
 e|---------7-------5---7-----------|---------------------------------|
 B|-----------------------------8---|-------------8---7---8-----------|
 G|---------------------------------|-----------------------------7---|
 D|---------------------------------|---------------------------------|
 A|---------------------------------|---------------------------------|
 E|---------------------------------|---------------------------------|

[Bm] [C]  
 
 e|---------------------------------|---------------------------------|
 B|-------------------------7-------|---------------------------------|
 G|-----------------7-----------9---|---------------------------------|
 D|-------------9-------------------|---------5---5-------------------|
 A|---------------------------------|---------------------------------|
 E|---------------------------------|---------------------------------|

CHORUS
01:55
 
 e|-3-----------3---3---------------|-3-----------3---3---3-----------|
 B|-5-----------5---5---------------|-5-----------5---5---5-----------|
 G|-5-----------5---5---------------|-5-----------5---5---5-----------|
 D|-5-----------5---5---------------|-5-----------5---5---5-----------|
 A|-3-----------3---3---------------|-3-----------3---3---3-----------|
 E|---------------------------------|---------------------------------|

Girl, love girl, love so bad
I you I you
 
 e|---------------------------------|---------------------------------|
 B|---------------------------------|-----------------------------8---|
 G|---------------------------------|---------------------------------|
 D|---------------------------------|---------------------------------|
 A|---------------------------------|---------------------------------|
 E|---------------------------------|---------------------------------|

[G] [Bm7] [Em]  
 
 e|-3---3-------3---3---------------|-3---------------7---7-------7---|
 B|-3---3-------3---3---------------|-3---------------7---7-------8---|
 G|-4---4-------4---4---------------|-4---------------7---7-------9---|
 D|-5---5-------5---5---------------|-5---------------7---7-------9---|
 A|-5---5-------5---5---------------|-5---------------9---9-------7---|
 E|-3---3-------3---3---------------|-3---------------7---7-----------|

But feels good
it so
 
 e|-10----------8-7-------------5---|-3-------------------------------|
 B|-----------------8-------------5-|---------------------------------|
 G|---------------------------------|---------------------------------|
 D|---------------------------------|---------------------------------|
 A|---------------------------------|---------------------------------|
 E|---------------------------------|---------------------------------|

BRIDGE
02:05
Sometimes it feels so bad
This is worse than anything I ever had
VERSE
02:27
[G] [Em]  
 
 e|-3-------3-------3---3-------3---|-------------3-------3---3-------|
 B|-3-------3-------3---3-------3---|-------------5-------5---5-------|
 G|-4-------4-------4---4-------4---|-------------4-------4---4-------|
 D|-5-------5-------5---5-------5---|-------------5-------5---5-------|
 A|-5-------5-------5---5-------5---|---------------------------------|
 E|-3-------3-------3---3-------3---|---------------------------------|

There was a pain but now you're near
[Bm] [C]  
 
 e|-2-----------2---2-----------2---|-3-----------3---3---3-----------|
 B|-3-----------3---3-----------3---|-5-----------5---5---5-----------|
 G|-4-----------4---4-----------4---|-5-----------5---5---5---5-------|
 D|-4-----------4---4-----------4---|-5-----------5---3---5---5-------|
 A|-2-----------2---2-----------2---|-3-----------3---3---3---3-------|
 E|---------------------------------|---------------------------------|

and I don't fear a thing
CHORUS
02:38
Girl, I love you
Girl, I love you so bad
She say
Boy, I love you
Boy, I love you so bad
[G]  
 
 e|---------------------------------|-10----------8-7-----------------|
 B|-----------------------------8---|-----------------8---10------8---|
 G|---------------------------------|-------------------------9-------|
 D|---------------------------------|---------------------------------|
 A|---------------------------------|---------------------------------|
 E|---------------------------------|---------------------------------|

OUTRO
03:00
[C]  
 
 e|-3-----------3---3---3-----------|-3-----------3---3---3-----------|
 B|-5-----------5---5---5-----------|-5-----------5---5---5-----------|
 G|-5-----------5---5---5-----------|-5-----------5---5---5-----------|
 D|-5-----------5---5---5-----------|-5-----------5---5---5-----------|
 A|-3-----------3---3---5-----------|-3-----------3---3---3-----------|
 E|---------------------------------|---------------------------------|

Girl, love girl, love
I you I you
[(G)]  
 
 e|---------------------------------|-------------10------------------|
 B|-------------------------12------|-10--12--------------------------|
 G|---------------------------------|---------------------------------|
 D|---------------------------------|---------------------------------|
 A|---------------------------------|---------------------------------|
 E|---------------------------------|---------------------------------|


Important: The song above is NOT stored on the Chordie server. The original song is hosted at www.guitaretab.com. Chordie works as a search engine and provides on-the-fly formatting. Chordie does not index songs against artists'/composers' will. To remove this song please click here.

Text color:
Chord color:
Chord grids: 
Font size:    
Page size: 

A/C# Am Bm Bm7 C D Dsus4 Em G
Rate #3 of 6 versions

Jango Player

Login - add to songbook

SHARE PAGE  




You need to log in to post comments