Guitar Tabs, Chords and Lyrics
Major upgrade!! After one year development the new version of Chordie is now online! Please give feedback.


Waterfalls  Paul McCartney

 
 --------------------------------------------------------------------------

Waterfalls - Paul McCartney
 
 ---------------------------------------------------------------------------

Tabbed by: maguri
Tuning: Standard
Paul McCartney
Waterfalls (1980)
(Paul McCartney)
From: "McCartney II"
 
 ---------------------------------------------------------------------------

Chords
e-B-G-D-A-D
Bm/A 2-3-4-4-0-x
Em7 x-3-0-2-2-0
Dmaj7 2-2-2-0-x-x
D6 x-3-4-0-x-x
D x-3-2-0-x-x
Bm/E 2-3-4-4-x-0
Em7/A 0-0-0-0-0-x
Bm7/E 2-3-2-4-x-0
 
 ---------------------------------------------------------------------------

SOLO
2nd fret
[A] [G] [Em] [Bm] [G] [A]  
 
 e|----0-----------|----------------|----2-----------|------------------|
 B|2-----------0---|----------------|3-----------0---|2---------223p2---|
 G|--------2-------|0---------------|--------2-------|---------------4p2|
 D|----------------|--4-2-----------|----------------|------------------|
 A|----------------|----------------|----------------|------------------|
 E|----------------|----------------|----------------|------------------|

[A] [G] [2/4] [Em] [Bm] [Bm/A] [G]  
 
 e|----0-----------|--------|------------2---|----------------|
 B|2-----------0---|--------|3-2-0-3-------0-|--0-2-3---------|
 G|--------2-------|0-------|----------------|----------------|
 D|----------------|--4-2---|----------------|----------------|
 A|----------------|--------|----------------|----------------|
 E|----------------|--------|----------------|----------------|
 ---------------------------------------------------------------------------

SONG
Capo 2nd fret
[A]Don't go [G]jumping [Em]waterfalls,
[Bm]please keep [G]to the [A]lake.
[A]People [G]who jump [Em]waterfalls
[Bm]sometimes can [Bm/A]make mis[G]takes.
And [Em]I [Em7]need [Dmaj7]love, [D6] [D] yeah [Em]I [Em7]need [Dmaj7]love[D6] [D]
Like a [Em]second [Em7]needs an [Dmaj7]hour,[D6] [D]
like a [Em]rain[Em7]drop needs a [Dmaj7]shower[D6].[D]
Yeah [Em]I [Em7]need [Dmaj7]love [D6] [D] every [Bm/E]minute of the day
and it [Em7/A]wouldn't be the same
if you [Bm7/E]ever should decide to go [E]away.
SOLO (see above)
| A G | Em | Bm G | A |
| A G |2/4 Em | Bm Bm/A | G |
And [Em]I [Em7]need [Dmaj7]love, [D6] [D] yeah [Em]I [Em7]need [Dmaj7]love[D6] [D]
Like a [Em]castle [Em7]needs a [Dmaj7]tower,[D6] [D]
Like a [Em]gar[Em7]den needs a [Dmaj7]flower[D6].[D]
Yeah [Em]I [Em7]need [Dmaj7]love [D6] [D] every [Bm/E]minute of the day
and it [Em7/A]wouldn't be the same
if you [Bm7/E]ever should decide to go [E]away.
[A]Don't go [G]chasing [Em]polar bears,
[Bm]In the [G]great un[A]known.
[A]Some big [G]friendly [Em]polar bear
[Bm]Might want to ta[Bm/A]ke you [G]home.
And [Em]I [Em7]need [Dmaj7]love, [D6] [D] yeah [Em]I [Em7]need [Dmaj7]love[D6] [D]
Like a [Em]second [Em7]needs an [Dmaj7]hour,[D6] [D]
like a [Em]rain[Em7]drop needs a [Dmaj7]shower[D6].[D]
Yeah [Em]I [Em7]need [Dmaj7]love [D6] [D] every [Bm/E]minute of the day
and it [Em7/A]wouldn't be the same
if you [Bm7/E]ever should decide to go [E]away.
[A]Don't run[G] after m[Em]otor cars,
[Bm]please stay [G]on the [A]side.
[A]Someone[G]'s glossy[Em] motor car
[Bm]might take you[Bm/A] for a r[G]ide.
And [Em]I [Em7]need [Dmaj7]love, [D6] [D] yeah [Em]I [Em7]need [Dmaj7]love[D6] [D]
Like a [Em]castle [Em7]needs a [Dmaj7]tower,[D6] [D]
Like a [Em]gar[Em7]den needs a [Dmaj7]flower[D6].[D]
Yeah [Em]I [Em7]need [Dmaj7]love, [Dmaj7] [D6] s[D]ay [Em]I [Em7]need [Dmaj7]love.[D6] [D]
Like a [Em]rain[Em7]drop needs a [Dmaj7]shower[D6].[D]
Like a [Em]second [Em7]needs an [Dmaj7]hour,[D6] [D]
Every [Bm/E]minute of the day
and it [Em7/A]wouldn't be the same
if you [Bm7/E]ever should decide to go [E]away.
(freely)
[A]Don't go [G]jumping [Em]waterfalls,
[Bm]please [G]keep to [A]the lake.

Important: The song above is NOT stored on the Chordie server. The original song is hosted at www.guitaretab.com. Chordie works as a search engine and provides on-the-fly formatting. Chordie does not index songs against artists'/composers' will. To remove this song please click here.

Text color:
Chord color:
Chord grids: 
Font size:    
Page size: 

A Bm Bm/A Bm/E D D6 Dmaj7 E Em Em7 G
Rate #3 of 9 versions

Jango Player

Login - add to songbook

SHARE PAGE  



You need to log in to post comments