Guitar Tabs, Chords and Lyrics
Server problems seems to be fixed. Chordie has been experiencing problems with songs disappearing. These issues now seems to be fixed, but still verifying the fix. If you find anything strange, please email admin@chordie.com.


Riding to Vanity Fair  Paul McCartney

RIDING TO VANITY FAIR - Paul McCartney
Intro:
[Asus2] [B5/A] [Am/E]  
 
 e|------------2----0--/----------2---0/----------2---0/----------2---0/
 B|---0-0-0-0--0----1--/-0-0-0-0--0---1/-0-0-0-0--0---1/-0-0-0-0--0---1/
 G|---2-2-2-2--2----2--/-2-2-2-2--2---2/-2-2-2-2--2---2/-2-2-2-2--2---2/
 D|---2-2-2-2-------2--/-2-2-2-2------2/-2-2-2-2------2/-2-2-2-2------2/
 A|0-------------------/---------------/---------------/---------------/
 E|--------------------/---------------/---------------/---------------/
 e|------------2----0---/-----------------2---0/
 B|------0-0-0-0--0----1/--------0-0-0-0--0---1/
 G|------2-2-2-2--2----2/--------2-2-2-2--2---2/ 2x
 D|------2-2-2-2-------2/--------2-2-2-2------2/
 A|---0-----------------/-----0----------------/
 E|0--------------------/0-3b------------------/

[Asus2] I bit my tongue [B5/A] [-] [Am/E] I never talk too much, -
[Asus2] I try to be so [B5/A] strong.[Am/E]
[Asus2] I did my best [B5/A] [-] [Am/E] I used a gentle touch, -
[Asus2] I've done it for so [B5/A] long.[Am/E]
[Asus2] You put me down [B5/A] [-] [Am/E] but I can laugh it off -
[Asus2] And act like nothing's [B5/A] wrong.[Am/E]
[Asus2] Why pretend? [B5/A] [-] [Am/E] I think I've heard enough -
[Asus2] Of your familiar [B5/A] song.[Am/E] [-] [(B] [-] [C] [-] [D] [-)]
[Emadd9] I'll tell you what I'm gonna [Gmaj7/D] do
[Cmaj7] I'll try to take my mind off you.
[Emadd9] Now that you don't need my [Gmaj7/D] help
[Cmaj7] I've used the time to [/] think about myself./
Asus2 - B5/A - Am/E 4x
[Asus2] You're not aware [B5/A] [-] [Am/E] of what you put me through -
[Asus2] But now the feeling's [B5/A] gone.[Am/E]
[Asus2] But I don't mind [B5/A] [-] [Am/E] Do what you have to do
[Asus2] You don't fool any - [B5/A] one.[Am/E] [-] [(B] [-] [C] [-] [D] [-)]
[Emadd9] I'll tell you what I'm gonna [Gmaj7/D] do
[Cmaj7] I'll take a different point of you.
[Emadd9] Now that you don't need my [Gmaj7/D] help
[Cmaj7] I've used the time to [/] think about myself./
[Fmaj7] The definition of friendship
Ap - [(Fmaj7)] parently you're to be showing support for the [Gmaj7] one that you love
[Fmaj7] and I was open to friendship
But [Fmaj7] you didn't seem to have any to spare -
[G/] While you were riding to Vanity Fair. /
Asus2 - B5/A - Am/E 4x
[Asus2] There was a time [B5/A] [-] [Am/E] when everyday was young,
[Asus2] The sun would always [B5/A] shine.[Am/E]
[Asus2] We sang along [B5/A] [-] [Am/E] when all the songs we sung
[Asus2] Believing every [B5/A] line.[Am/E]
Break:
Emadd9 - Gmaj7/D - Cmaj7 2x /
[Fmaj7] That's the trouble with friendship
[Fmaj7] Someone to feed it it has to be real or it [Gmaj7] wouldn't be right
[Fmaj7] And I keep hoping for friendship
But [Fmaj7] I wouldn't dare to presume it was there
[G/] While you were riding to Vanity Fair. /
Cello:
 
 e|--------------------------/
 B|--------------------------/
 G|--------------------------/
 D|--------------------------/
 A|---------5--3--2--3p2-----/
 E|3-s-5-----------------0-3b/

Outro:
Asus2 - B5/A - Am/E 12x //
Asus2 x0220x
B5/A xxx202
Am/E xx2210
B x2xxxx
C x3xxxx
D xx0xxx
Emadd9 022002
Gmaj7/D xx0002
Cmaj7 x32000
Fmaj7 1x2210
Gmaj7 320002
G 320033

Important: The song above is NOT stored on the Chordie server. The original song is hosted at www.guitaretab.com. Chordie works as a search engine and provides on-the-fly formatting. Chordie does not index songs against artists'/composers' will. To remove this song please click here.

Text color:
Chord color:
Chord grids: 
Font size:    
Page size: 

Am/E Asus2 B5/A C Cmaj7 D Emadd9 Fmaj7 Gmaj7 Gmaj7/D
Rate #1 of 6 versions

Login - add to songbook

SHARE PAGE  




You need to log in to post comments