Guitar Tabs, Chords and Lyrics
Server problems seems to be fixed. Chordie has been experiencing problems with songs disappearing. These issues now seems to be fixed, but still verifying the fix. If you find anything strange, please email admin@chordie.com.


Too Many People  Paul McCartney

 
 ---------------------------------------------------------------------------

Too Many People ? Paul McCartney
 
 ---------------------------------------------------------------------------

Tabbed by: maguri
Tuning: Standard
Paul McCartney
Too Many People
(McCartney)
From: "Ram" (1971)
 
 ---------------------------------------------------------------------------

LICK
G [cb]Cm6/G[/cb] G [cb]Cm6/G[/cb]
[1] [+] [2] [+] [3] [+] [4] [+] [1] [+] [2] [+] [3] [+] [4] [+] [1] [+] [2] [+] [3] [+] [4] [+] [1] [+] [2] [+] [3] [+] [4] [+]  
 
 e|----------------|----------------|----------------|----------------|
 B|-------------3--|4---------------|--------------3-|4---------------|
 G|------------4---|----------------|------------4---|----------------|
 D|----------5-----|----------------|----------5-----|----------------|
 A|------5---------|----------------|------5---------|----------------|
 E|----------------|----------------|----------------|----------------|
 ---------------------------------------------------------------------------

CHORDS
G [E-A-D-G-B-E]3-x-0-0-0-3
G7 3-x-3-0-0-3
C/G 3-x-2-0-1(3)
[cb]Cm6/G[/cb] 3-x-1-2-1(3)
 
 ---------------------------------------------------------------------------

INTRO
G G7 C/G [cb]Cm6/G[/cb] |
(Piss off, ca-A-A-A-...
G G7 C/G [cb]Cm6/G[/cb] [G]
A-A-ake) Oooh-ooh-ooh-ooh
| G | [cb]Cm6/G[/cb] | G |[1+2+3+4+] [cb]Cm6/[1+2+3+4+]G[/cb] | G GG |GG GG |
LICK (see above]
VERSE 1
[F] Too many [C]people [D]going [G]underground
[F] Too many [C]reaching for a [D]piece of [G]cake
[F] Too many [C]people [D]pulled and [G]pushed around
[F] Too many [C]waiting for that [D]lucky [G]break
PART
G G7 C/G [cb]Cm6/G[/cb]
That was your first mistake
G G7 C/G [cb]Cm6/G[/cb] [G]
You took your lucky break and broke it in two
| G | [cb]Cm6/G[/cb] G
[LICK] Now what can be done for you
[cb]Cm6/G[/cb] [1+2+3+4+] |[1+2+3+4+]G GG |GG GG |
You broke it in two
VERSE 2
[F] Too many [C]people [D]sharing [G]party lines
[F] Too many [C]people never [D]sleeping [G]late
[F] Too many [C]people [D]paying [G]parking fines
[F] Too many [C]hungry people [D]losing [G]weight
PART
G G7 C/G [cb]Cm6/G[/cb]
That was your first mistake
G G7 C/G [cb]Cm6/G[/cb] [G]
You took your lucky break and broke it in two
| G | [cb]Cm6/G[/cb] G
[LICK] Now what can be done for you
[cb]Cm6/G[/cb] [1+2+3+4+] |[1+2+3+4+]G GG |GG GG |
You broke it in two
SOLO
| Am | Em | G | D |
| Am | Em | G | D | G |
VERSE 3
[F] Too many [C]people [D]preaching [G]practices
[F] Don't let them [C]tell you what you [D]want to [G]be
[F] Too many [C]people [D]holding [G]back, this is
[F]Crazy and [C]baby it's [D]not like [G]me
PART
G G7 C/G [cb]Cm6/G[/cb]
That was your last mistake
G G7 C/G [cb]Cm6/G[/cb] [G]
I find my love awake and waiting to be
| G | [cb]Cm6/G[/cb] G
[LICK] Now what can be done for you
[cb]Cm6/G[/cb] [1+2+3+4+] |[1+2+3+4+]G GG |GG GG |
She's waiting for me
CODA
| A | Em | G | D |
| Bb | F | Ab | Eb |
| C | G | Bb | F | % | % | C | % | % | (repeat and fade)
(timing and bar limits become a little fuzzy
during that prolonged ?F? chord)

Important: The song above is NOT stored on the Chordie server. The original song is hosted at www.guitaretab.com. Chordie works as a search engine and provides on-the-fly formatting. Chordie does not index songs against artists'/composers' will. To remove this song please click here.

Text color:
Chord color:
Chord grids: 
Font size:    
Page size: 

C D F G
Rate #1 of 6 versions

Login - add to songbook

SHARE PAGE  



You need to log in to post comments