Guitar Tabs, Chords and Lyrics
Server problems seems to be fixed. Chordie has been experiencing problems with songs disappearing. These issues now seems to be fixed, but still verifying the fix. If you find anything strange, please email admin@chordie.com.


All the Pictures on the Wall  Paul Weller

 
 -------------------------------------------------------------------------------

ALL THE PICTURES ON THE WALL (Live Wood version) - Paul Weller
 
 -------------------------------------------------------------------------------

Tabbed by: Ezy Rider
Chords:
E 022100
G#m6 066400
F#m7add11 044200
G 320003
A x02220
C#m7 046600
Bsus4 x24400
Tuning: Standard
Intro riff:
 
 e|---------------------------------------------------------------------------|
 B|---------------------------------------------------------------------------|
 G|---------------------------------------------------------------------------|
 D|---2h4p2----4--2-2------2-----2-----2--------------------------------------|
 A|--------------------2h4---2h4---2h4----------------------------------------|
 E|-0-------------------------------------------------------------------------|

Chorus
 
 ------

E (riff) G#m6 F#m7add11
And all the pictures on the wall
E (riff)
Serve only to remind you of it all
The wasted days we could have [G#m6]lived[F#m7add11]
G A E (riff)
Now we're left with nothing left to give
Verse
[-----]  
There was a time I really [G#m6]loved you[F#m7add11]
E (riff)
But when that was I just can't say
As all the memories [G#m6]merge into [F#m7add11]one
E (riff)
As each day becomes each day
Chorus
 
 ------

The clock hands ticking on the [G#m6]wall[F#m7add11]
E (riff)
Are just reminders of it all
The wasted days we could have [G#m6]lived[F#m7add11]
Now we're [G]left with [A]nothing [C#m7]left to give[Bsus4]
A E (riff)
(Nothin' left to give)
Verse
[-----]  
We used to meet each others' [G#m6]eyes[F#m7add11]
E (riff)
And that's all we'd have to say
Now we don't talk that much at [G#m6]all[F#m7add11]
E (riff)
The further our eyes seem to stray
Chorus
 
 ------

And all the pictures on the [G#m6]wall[F#m7add11]
E (riff)
Serve only to remind you of it all
The wasted days we could have [G#m6]lived[F#m7add11]
G A E (riff)
Now we're left with nothing left to give
Bridge
 
 ------

And in a funny kind of [C#m7]way[Bsus4] [A]
This empty [Bsus4]room was full one [C#m7]day[Bsus4] [A]
Full of [Bsus4]love that we once [C#m7]shared[Bsus4] [A]
Now it [G#m6]all looks so [F#m7add11]bare[G#m6]
[A]The silent [Bsus4]walls whose cracks I [C#m7]feel -[Bsus4]
[F#m7add11]But is there [G]room to [A]let the [C#m7]hatred heal?
Bsus4 A E (riff)
Solo
[----]  
 
 e|------------------------------------------------------------------------------|
 B|------------------------------------------------------------------------------|
 G|------------------------------------------------------------------------------|
 D|------------------2---2h4----4/6---4-2----4--2-2------2-----2-----2---2h4-4-2-|
 A|----2---2h4--2h4----4-----------------------------2h4---2h4---2h4-------------|
 E|/4----4-------------------------------------------------------------0---------|
 e|----------------------------------------------------------------------------|
 B|----------------------------------------------------------------------------|
 G|----------------------9----9h11----11b13-11b13-9-11b13---11b13r11p9h11------|
 D|-----9----9h11---9h11---11--------------------------------------------------|
 A|-/11---11-------------------------------------------------------------------|
 E|----------------------------------------------------------------------------|

Outro
[-----]  
[(E)]The clock hands ticking on the [G#m6]wall[F#m7add11]
E (riff)
Are just reminders of it all
The wasted days we could have [G#m6]lived[F#m7add11]
Now we're [G]left with [A]nothing [C#m7]left to give[Bsus4]
(Nothin' left to [A]give)[E]
************************************
| / slide up
| \ slide down
| h hammer-on
| p pull-off
| ~ vibrato
| + harmonic
| x Mute note
| b Bend
| pb Pre-bend
| br Bend release
| pbr Pre-bend release
| brb Bend release bend
************************************

Important: The song above is NOT stored on the Chordie server. The original song is hosted at www.guitaretab.com. Chordie works as a search engine and provides on-the-fly formatting. Chordie does not index songs against artists'/composers' will. To remove this song please click here.

Text color:
Chord color:
Chord grids: 
Font size:    
Page size: 

A Bsus4 C#m7 E G G#m6
Rate #1 of 7 versions

Login - add to songbook

SHARE PAGE  




You need to log in to post comments