Guitar Tabs, Chords and Lyrics
Major upgrade!! After one year development the new version of Chordie is now online! Please give feedback.


Gasoline  Paw

ubi_rex@hotmail.com
You can play a nice simple version of this with a capo on 3 and the
substitutions Bb=G, Gm=Em, F=D, and Dm=Bm, which I've put in
parenthesis in the song. See notes at the end for solos and other info.
(look up the acoustic version of this song on youtube-it?s good)
Intro Bb (G if capoed)
(strum low strings then middle strings to get the effect)
Five, six, seven, eight!
Eb F Gm Bb (C D Em G if capoed)
[Eb] [F] [Bb] [(C] [D] [G)]  
All the time, a[Bb(G)]wake--You're still on my mind.
But we were on our [Gm(Em)]own--Almost all the [F(D)]time.
And she'll step [Bb(G)]away--For a second or two.
And I close my [Gm(Em)]eyes. And I think of [F(D)]you.
We were [Eb(C)]only seven[F(D)]teen, we were [Gm(Em)]holding in our [Bb(G)]screams
like we'd [Eb(C)]torn it from the [F(D)]pages of some [Gm(Em)]lipstick maga[Bb(G))]zine
And you s[Eb(C)]cratch and turn and [F(D)]say,
"let's burn [Gm(Em)]ourselves up '[F(D)]til we [Eb(C)]scream"--like gaso[Bb(G]line
Solo over Bb (similar to intro Bb)
Those tender [Bb(G)]days--at your mother's house
And your [Gm(Em)]father would find my hand inside your [F(D)]blouse
But they tell me [Bb(G)]that--you're married now
Oh my [Gm(Em)]dear, I fear, I can't understand [F(D)]how
We were [Eb(C)]only seven[F(D)]teen, we were [Gm(Em)]holding back our [Bb(G)]screams
like we'd [Eb(C)]torn our lives from the [F(D)]pages of some [Gm(Em)]girly maga[Bb(G)]zines
And you s[Eb(C)]cratch and turn and [F(D)]say,
"let's burn these [Gm(Em)]sheets down [F(D)]to the [Eb(C)]seams"--like gaso[Bb(G)]line
Solo
Bb Dm Gm F x2 (G Bm Em C if capoed)
I was [Eb(C)]only twenty [F(D)]one, I wasn't [Gm(Em)]having any [Bb(G)]fun
And the [Eb(C)]words you said tore [F(D)]through my head like [Gm(Em)]bullets from a [Bb(G)]gun
And I [Eb(C)]shoulda just shown [F(D)]up and said,
"Get [Gm(Em)]in this [F(D)]car, let's [Eb(C)]run"
And these [Eb(C)]years have seen so [F(D)]many imit[Gm(Em)]ations turning [Bb(G)]green
Each like the [Eb(C)]last, they go right [F(D)]past like [Gm(Em)]credits on a [Bb(G)]screen
But your [Eb(C)]memory blazes [F(D)]through me
[Gm(Em)]Burning [F(D)]every[Eb(C)]thing--like gaso[Bb(G)]line
 
 ----------------

First solo
(these are all tenth fret 10?s below. No ones or zeroes)
[Bb(G)]  
 
 --------------------------------------------------------|
 --------------------------------------------------------|
 --------------------------------------------------------|
 ----------------------------------------------------8---|x2
 -8-88-888--8h10-1010-101010-----------------88-1010-----|
 ----------------------------10-1010-101010--------------|
 ------------- ----------|
 ------------- ----------|
 ------------- ----------|
 -10-10h12p10-x4 -8-8h10p8-|x4 [this whole line x2]
 ------------- ----------|
 ------------- ----------|

Second solo
(you should be able to play the chords with two fingers, or less,
and then hit the solo notes with your other fingers)
[Bb(G)] [Dm(Bm)]  
 
 -6-6-66-8-6-8-10--10-10-1010-11-10-------|
 -6-6--------------10-10------------13-11-|
 -7-7--------------10-10------------------|
 -----------------------------------------|
 -----------------------------------------|
 -----------------------------------------|

[Gm(Em)] [F(D)]  
 
 -3-3-33-3-3-3-5---5-5-55-6-5-8-5--|
 -3-3--------------6-6-------------|
 -3-3--------------5-5-------------|
 ----------------------------------|
 ----------------------------------|
 ----------------------------------|

Repeat, except 2nd time don't solo on F, just wail on the chord.
On the live acoustic version, violin plays this during the Dm repeat
(which they should have done on the album)
[Dm(Bm)]  
 
 -13-13-1313-15-13-11-10-|
 ------------------------|
 ------------------------|
 ------------------------|
 ------------------------|
 ------------------------|

Finally, I think this is how the chords are played on the album
[Bb] [Gm] [F] [Eb] [F] [Gm] [Bb]  
 
 -10--10--8------------10--6--|
 -11--11--10---8---10--11--6--|
 -10--12--10---8---10--12--7--|
 -12--12--10---8---10--12--8--|
 --------------6---8---10--8--|
 --------------------------6--|

I've been playing it like this, simpler, and sounds fine
[Bb] [Gm] [F] [Eb] [F] [Gm] [Bb]  
 
 -6---10---------------10--6--|
 -6---11--10---8---10--11--6--|
 -7---12--10---8---10--12--7--|
 -8---12--10---8---10--12--8--|
 -8---10--8----6---8---10--8--|
 -6------------------------6--|

Watching them live, I see one guy plays the chords this way
while the other plays with a capo on 3. So if you?re playing
alone just fool with the placement of the chords to get
the sound you want. I really over-did the tab for a song
probably ten people have heard.

Important: The song above is NOT stored on the Chordie server. The original song is hosted at www.guitaretab.com. Chordie works as a search engine and provides on-the-fly formatting. Chordie does not index songs against artists'/composers' will. To remove this song please click here.

Text color:
Chord color:
Chord grids: 
Font size:    
Page size: 

Bb D Dm(Bm) Eb F Gm Gm(Em)
Rate #1 of 1 versions

Jango Player

Login - add to songbook

SHARE PAGE  




You need to log in to post comments