Guitar Tabs, Chords and Lyrics
Server problems seems to be fixed. Chordie has been experiencing problems with songs disappearing. These issues now seems to be fixed, but still verifying the fix. If you find anything strange, please email admin@chordie.com.


Come Back   Pearl Jam

 
 -------------------------------------------------------------------------------

 


 COME BACK - Pearl Jam


 

 
 -------------------------------------------------------------------------------

 


 Tabbed by: csokolin


 Email: sokolinski@alumni.purdue.edu


 


 Tuning: Standard


 


 As far as I know there hasn't been a complete (or correct) version of this


 solo posted. I'm very confident this version is correct. I'm a long time PJ fan


 and saw them a couple times in Chicago last month, they rocked! I definately


 recommend catching them on their '06 tour sometime.


 


 About this solo: Timing is everything, pay very close attention. I did my best


 to mark the time throughout this song but Mike often holds a bend or delays a


 hammer-on/pull-off. You need to listen for these and play accordingly. And


 lastly, keep on rockin' in the free world.


 


 [3:37] [3:53] 


 

 
 e|--------------------------------------------------------10-------10--------|
 B|-------10~~----13--11-----10------13----------13P11P10-----------11P10--11-|
 G|-10h12--------------------------------10--------------------------------10-|
 D|---------------------------------------------------------------------------|
 A|---------------------------------------------------------------------------|
 E|---------------------------------------------------------------------------|

 


 


 [3:59] 


 

 
 e|--------------------------------------8-------10---------------------------|
 B|-10h11P10--11--10-------8-8--8~~---------6--------8-------13P11P10-11------|
 G|-------------------10------------------------------------------------------|
 D|---------------------------------------------------------------------------|
 A|---------------------------------------------------------------------------|
 E|---------------------------------------------------------------------------|

 


 


 [4:15] 


 

 
 e|---------------------------------------------------------------------------|
 B|---------------------------------------------------------------------------|
 G|-10h12P10------------------------------------------------------------------|
 D|---------------7--8--10--12--------12/14-----------------------------------|
 A|---------------------------------------------------------------------------|
 E|---------------------------------------------------------------------------|

 


 


 [4:22] [4:23] 


 

 
 e|---------------------------------------------------------------------------|
 B|(13)------------------------------------------------13-b-15-r-13~~~--------|
 G|-12-b-14-r-12P10----10----12-b-14-r-12P10----------------------------------|
 D|-----------------12-----------------------12-10----------------------------|
 A|---------------------------------------------------------------------------|
 E|---------------------------------------------------------------------------|

 


 [4:27] !!!! "I,llllllllll be here"


 

 
 e|---------------------------------13---------13---------13-13-13------------|
 B|-11-10---11\10---11-11P10------------11-11--11--10--10-11-11-11------------|
 G|-------------------------10----------10-10--10-(10)-10-10-10-10------------|
 D|----------------------------------------------------10-10-10-10------------|
 A|---------------------------------------------------------------------------|
 E|---------------------------------------------------------------------------|

 


 


 [4:33] [4:39] 


 

 
 e|----13-----------------------------------------13-13-13-13-13-13-----------|
 B|----11-----------------------------------------11-11-11-11-11-11-----------|
 G|-10---10----14-12-10~~--12-10~~--10-12---------10-10-10-10-10-10-----------|
 D|------10-------------------------------10----------------------------------|
 A|---------------------------------------------------------------------------|
 E|---------------------------------------------------------------------------|

 


 


 [4:41] [4:47] 


 

 
 e|-------------13------------------------------------------------------------|
 B|-----11-11---11--10------11--10------11--10--------------------------------|
 G|-10--10-10-----------10----------10----------10---10------10~~~------------|
 D|(10)----------------------------------------------10-----------------------|
 A|---------------------------------------------------------------------------|
 E|---------------------------------------------------------------------------|

 


 


 [4:50] [4:54] 


 

 
 e|---------------------------------------------------------------------------|
 B|-13-b-15-r-13~---11P10---------11-11-11-11-11-11-11-11-11-11-11-11---------|
 G|-----------------------10~~~---10~10~10~10~10~10~10~10~10~10~10~10---------|
 D|---------------------------------------------------------------------------|
 A|---------------------------------------------------------------------------|
 E|---------------------------------------------------------------------------|

 


 


 Outro x2 [4:58]


 

 
 e|---------------------------------------------------------------------------|
 B|-13~~--11~~--10~~-------------13~~----11-10~~------------------------------|
 G|-------------------10~~-------------------------10~~-----------------------|
 D|---------------------------------------------------------------------------|
 A|---------------------------------------------------------------------------|
 E|---------------------------------------------------------------------------|

 


 Last Note(S)


 

 
 e|---------------------------------------------------------------------------|
 B|-13-b-15-r-13--------------------------------------------------------------|
 G|---------------------------------------------------------------------------|
 D|---------------------------------------------------------------------------|
 A|---------------------------------------------------------------------------|
 E|---------------------------------------------------------------------------|


Important: The song above is NOT stored on the Chordie server. The original song is hosted at www.guitaretab.com. Chordie works as a search engine and provides on-the-fly formatting. Chordie does not index songs against artists'/composers' will. To remove this song please click here.

This song is displayed as text-only. Transposing and tuning is only available for chordpro-songs.
Rate #1 of 7 versions

Jango Player

Login - add to songbook

SHARE PAGE  




You need to log in to post comments