Guitar Tabs, Chords and Lyrics
Server problems seems to be fixed. Chordie has been experiencing problems with songs disappearing. These issues now seems to be fixed, but still verifying the fix. If you find anything strange, please email admin@chordie.com.


Got Some  Pearl Jam

Tabbed by: East79
Email:
This is from their performance on Conan. This is the main structure of the song. This is
100% as the song may be different by the time the album comes out.
This is just a general guide as to what I believe is being played. The solo and other
riffs have not been included. The chords for the bridge sound a bit off. 06/05/09
Tuning: Standard
INTRO:2x
 
 e|---------------------------------------------------------------------------|
 B|---------------------------------------------------------------------------|
 G|--14p12-14-14-12-14-14p12-14-14-12-14-12-----------------------------------|
 D|-----------------------------------------12--------------------------------|
 A|---------------------------------------------------------------------------|
 E|---------------------------------------------------------------------------|

VERSE:2x
 
 e|---------------------------------------------------------------------------|
 B|-----------------------------8---8---8-------------------------------------|
 G|-----------7------------------7---7---7------------------------------------|
 D|--7-7-10-7---7-10-7---7-7-10-----------------------------------------------|
 A|---------------------------------------------------------------------------|
 E|---------------------------------------------------------------------------|

Every night with the lights out where you gone? what's wrong?
Every time you can try but can't turn on, a rock song
 
 e|---------------------------------------------------------------------------|
 B|--------------------------------------------------------------8---8---8----|
 G|--------------------------------7-------------------------------7---7---7--|
 D|---7-7-7-7-7-7-7-7-----7-7-10-7---7-10-7---7-7-7-7-7-7-7--7-7--------------|
 A|---------------------------------------------------------------------------|
 E|---------------------------------------------------------------------------|

I got some if you need it (4x)
 
 e|---------------------------------------------------------------------------|
 B|---------------------------------------------------------------------------|
 G|---------10--7-------------------------------------------------------------|
 D|--7--10--10--7-------------------------------------------------------------|
 A|--7--10---8--5-------------------------------------------------------------|
 E|--5---8--------------------------------------------------------------------|

[A]Get it now get enough b[C]efore its gone, [F]Let's everybody c[D]arry on, carry on
Turn it up set it off before its gone, Let's everybody carry on, carry on
 
 e|---------------------------------------------------------------------------|
 B|---------------------------------------------------------------------------|
 G|--7---3-------5------------------------------------------------------------|
 D|--7---3---5---5------------------------------------------------------------|
 A|--5---1---5---3------------------------------------------------------------|
 E|----------3----------------------------------------------------------------|

[D]This situation, which side are you o[Bb]n?
Are you on the rise, are you falling [G]down?
Let me know, [C]c'mon let's go yeah
 
 e|---------------------------------------------------------------------------|
 B|--------------------------------------------------------------8---8---8----|
 G|--------------------------------7-------------------------------7---7---7--|
 D|---7-7-7-7-7-7-7-7-----7-7-10-7---7-10-7---7-7-7-7-7-7-7--7-7--------------|
 A|---------------------------------------------------------------------------|
 E|---------------------------------------------------------------------------|

I got some if you need it (4x)
 
 e|---------------------------------------------------------------------------|
 B|---------------------------------------------------------------------------|
 G|---------10--7-------------------------------------------------------------|
 D|--7--10--10--7-------------------------------------------------------------|
 A|--7--10---8--5-------------------------------------------------------------|
 E|--5---8--------------------------------------------------------------------|

[A]Get it now get enough b[C]efore its gone, [F]Let's everybody g[D]et enough, get it on
Tear it up set it off before its gone, Let's everybody get it on, get it on
 
 e|---------------------------------------------------------------------------|
 B|---------------------------------------------------------------------------|
 G|--7---3-------5------------------------------------------------------------|
 D|--7---3---5---5------------------------------------------------------------|
 A|--5---1---5---3------------------------------------------------------------|
 E|----------3----------------------------------------------------------------|

[D]This situation, which side are you o[Bb]n?
Are you on the rise, are you falling [G]down?
Let me know, [C]c'mon let's go yeah
 
 e|---------------------------------------------------------------------------|
 B|---------------------------------------------------------------------------|
 G|--7---3-------5------------------------------------------------------------|
 D|--7---3---5---5------------------------------------------------------------|
 A|--5---1---5---3------------------------------------------------------------|
 E|----------3----------------------------------------------------------------|

[D]Precipitation, which side are you o[Bb]n?
Are you dropping bombs, are you getti[G]ng out?
Have you hear[C]d of diplomatic resolve?
 
 e|-----------------------/----------------------------------------------------|
 B|-----------------------/----------------------------------------------------|
 G|--7---3-------5--10----/10---12--10--12-------------------------------------|
 D|--7---3---5---5--10----/10---12--10--12-------------------------------------|
 A|--5---1---5---3---8----/8----10--8---10-------------------------------------|
 E|----------3------------/----------------------------------------------------|

/BRIDGE: I got some if you need it, I got some
 
 e|----------------------------------------------------------------------------|
 B|----------------------------------------------------------------------------|
 G|---------10--7--------------------------------------------------------------|
 D|--7--10--10--7--------------------------------------------------------------|
 A|--7--10---8--5--------------------------------------------------------------|
 E|--5---8---------------------------------------------------------------------|

[A]Get enough, get enough,[C] before its gone[F], Let's everybody[D] carry on, carry on
Set it up, turn it up, before its gone, Let's everybody get it on, get it on
 
 e|----------------------------------------------------------------------------|
 B|----------------------------------------------------------------------------|
 G|--7---3-------5-------------------------------------------------------------|
 D|--7---3---5---5-------------------------------------------------------------|
 A|--5---1---5---3-------------------------------------------------------------|
 E|----------3-----------------------------------------------------------------|

[D]This situation, which side are you o[Bb]n?
Are you dropping bombs? are you getti[G]ng out?
Have you hear[C]d of diplomatic resolve yeah?
 
 e|----------------------------------------------------------------------------|
 B|----------------------------------------------------------------------------|
 G|--7---3-------5-------------------------------------------------------------|
 D|--7---3---5---5-------------------------------------------------------------|
 A|--5---1---5---3-------------------------------------------------------------|
 E|----------3-----------------------------------------------------------------|

[D]Precipitation which side are you on[Bb]?
Are you drying up? are you a big drop[G]?
Are you a pud[C]dle full of detrimental?
 
 e|----------------------------------------------------------------------------|
 B|----------------------------------------------------------------------------|
 G|--7---3-------5-------------------------------------------------------------|
 D|--7---3---5---5-------------------------------------------------------------|
 A|--5---1---5---3-------------------------------------------------------------|
 E|----------3-----------------------------------------------------------------|

Got some, got some, carry on, carry on
 
 e|----------------------------------------------------------------------------|
 B|----------------------------------------------------------------------------|
 G|--7---3-------5--7----------------------------------------------------------|
 D|--7---3---5---5--7----------------------------------------------------------|
 A|--5---1---5---3--5----------------------------------------------------------|
 E|----------3-----------------------------------------------------------------|

I got some if you need it, I got some if you need it, carry on, let's go
| / slide up
| \ slide down
| h hammer-on
| p pull-off
| ~ vibrato
| + harmonic
| x Mute note

Important: The song above is NOT stored on the Chordie server. The original song is hosted at www.guitaretab.com. Chordie works as a search engine and provides on-the-fly formatting. Chordie does not index songs against artists'/composers' will. To remove this song please click here.

Text color:
Chord color:
Chord grids: 
Font size:    
Page size: 

A Bb C D F G
Rate #2 of 4 versions

Jango Player

Login - add to songbook

SHARE PAGE  



You need to log in to post comments