Guitar Tabs, Chords and Lyrics
Server problems seems to be fixed. Chordie has been experiencing problems with songs disappearing. These issues now seems to be fixed, but still verifying the fix. If you find anything strange, please email admin@chordie.com.


Parachutes  Pearl Jam

chord fingering and plucking patterns:
plucked only in the verses, strum the chords in the choruses.
it's okay to strum the verses too.
(tabs not according to correct timing)
G: 320033
 
 e|-----------------|
 B|----3-------3----|
 G|----3-------3----|
 D|--------0--------|
 A|-----------------|
 E|3----------------|

G7: 320001
 
 e|----1-------1----|
 B|----0-------0----|
 G|---------0-------|
 D|-----------------|
 A|-----------------|
 E|3----------------|

C: x32010
 
 e|-----------------|
 B|---1------1------|
 G|---0------0------|
 D|--------2--------|
 A|3----------------|
 E|-----------------|

ADim7: xx1212
 
 e|--2----2---------|
 B|--1----1---------|
 G|------2----------|
 D|1----------------|
 A|-----------------|
 E|-----------------|

Bb: x13331
 
 e|-----------------|
 B|--3-----3--------|
 G|--3-----3--------|
 D|-------3---------|
 A|1----------------|
 E|-----------------|

Daug: x10332
 
 e|--2-----2--------|
 B|--3-----3--------|
 G|--3-----3--------|
 D|-------0---------|
 A|1----------------|
 E|-----------------|

Am: x02210
 
 e|-----------------|
 B|----3-------3----|
 G|----3-------3----|
 D|--------0--------|
 A|0----------------|
 E|-----------------|

Am*/C* : switch from G to Am or G7 to C halfway through the G /G7pattern
Am** :
 
 e|-----------------|
 B|---5--5--5--5----|
 G|---5--5--5--5----|
 D|--7--6--5--4-----|
 A|-----------------|
 E|-----------------|

G/F# : 2x0033
Em : 022000
Em7 : 020000
[G]Why deny
Am*
all the troubles when combined
With the missing links
Am**
It don't feel like
[D]home [G]now,...
[G]That you're gone
all the troubles
Am*
Suddenly explained infinitum
You're always wishing and
Am**
never here at
[D]Home
[G]You
All the d[G7]reams we shared and
Li[C]ghts we turned on
But the h[Adim7]ouse is getting dark[Bb]
And I[G7] don't want to kn[C]ow your past
But togeth[Adim7]er share the dawn[Bb]
Daug G G/F# Em
And I won't need
Noth[Em7]ing else
Cause when we're [Am]dead
We would've h[C]ad it all[G]
And d[G/F#]ied
[Em]I would've fallen f[Em7]rom the sky
[Am]To you
Parachutes have [C]opened no[G]w
Heaven knows if there's a ceiling
Gone so low with the kneeling
Please know that
I got
All the friends I need and
Before my light goes out
As the doors are closing now
And far away will be my home
And to grasp this, I don't know
But I don't need
Further back and forth, a wave will break on me today
And love,... Wish the world could go again with love
One can't seem to have enough
And war,... Break the sky and tell me what it's for
I'll travel there on my own
And love,... What a different life
Had I not found this love with you

Important: The song above is NOT stored on the Chordie server. The original song is hosted at www.guitaretab.com. Chordie works as a search engine and provides on-the-fly formatting. Chordie does not index songs against artists'/composers' will. To remove this song please click here.

Text color:
Chord color:
Chord grids: 
Font size:    
Page size: 

Adim7 Am Bb C D Em Em7 G G/F# G7
Rate #1 of 6 versions

Jango Player

Login - add to songbook

SHARE PAGE  



You need to log in to post comments