Guitar Tabs, Chords and Lyrics
Server problems seems to be fixed. Chordie has been experiencing problems with songs disappearing. These issues now seems to be fixed, but still verifying the fix. If you find anything strange, please email admin@chordie.com.


Life Wasted  Pearl Jam

 
 -|----------------------------------------------------------------------------|
 -|---3---2--2--2------------------3---2---2---2-------------------------------|
 -|---2---2--2--2---0---0--0--0----2---2---2---2---0---0--0--0--0--0--0--------|
 -|---0---2--2--2---0---0--0--0----0---2---2---2---0---0--0--0--0--0--0--0-----|
 -|-------0--0--0---3-/-5--5--5--------0---0---0---3-/-5--5--5--5--5--3--0-----|
 -|----------------------------------------------------------------------------|

G1 Intro/Verse 1 3x
 
 -|----------------------------------------------------------------------------|
 -|----------------------------------------------------------------------------|
 -|-------------------------------11-------------------------------------------|
 -|-----------------9-\-----------11--11--11--11---9-\-------------------------|
 -|-----------------7-\------------9--11--11--11---7-\-------------------------|
 -|------------------------------------9---9---9-------------------------------|

[G2]  
 
 -|----------------------------------------------------------------------------|
 -|----------------------------------------------------------------------------|
 -|----------------------------------------------------------------------------|
 -|-------------------------------------------------5--5----5---5-5--5-5-5-----|
 -|-------------------------------------------------3--2----3---3-3--3-3-3-----|
 -|-----2--2-0--2-0---2-0-2-0--2--2--2-0-2-0--2-0---0--0----0---0-0--0-0-0-----|

G1 (this part is played behind the capo) 2x
 
 -|----------------------------------------------------------------------------|
 -|----------------------------------------------------------------------------|
 -|----------------------------------------------------------------------------|
 -|-------------------------------------------------9--9----9---9-9--9-9-9-----|
 -|-----4--4-4--4-4---4-4-4-4--4--4--4-4-4-4--4-4---7--6----7---7-7--7-7-7-----|
 -|-----2--2-0--2-0---2-0-2-0--2--2--2-0-2-0--2-0---0--0----0---0-0--0-0-0-----|

G2 2x
 
 -|----------------------------------------------------------------------------|
 -|---3---------------3--------------3-----------------------------------------|
 -|---2----2--2--2----2----2--2--2---2--2--2--2----2-----0---0--0-0------------|
 -|---0----2--2--2----0----2--2--2---0--2--2--2----2-----0---0--0-0------------|
 -|--------0--0--0---------0--0--0------0--0--0----0-----x---x--x-x------------|
 -|------------------------------------------------------3---3--3-3------------|

G1 Chorus 3x
 
 -|----------------------------------------------------------------------------|
 -|----------------------------------------------------------------------------|
 -|---11--------------11------------11-----------------------------------------|
 -|---11---11-11-11---11--11-11-11--11-11-11-11---11-11---9--9--9-9------------|
 -|----9---11-11-11----9--11-11-11---9-11-11-11---11-11---9--9--9-9------------|
 -|---------9--9--9--------9--9--9------9--9--9----9--9---7--7--7-7------------|

G2 3x
 
 -|----------------------------------------------------------------------------|
 -|----------------------------------------------------------------------------|
 -|----------------------------------------------------------------------------|
 -|-------------------------------------------------5--5----5---5-5--5-5-5-----|
 -|-------------------------------------------------3--2----3---3-3--3-3-3-----|
 -|-----2--2-0--2-0---2-0-2-0--2--2--2-0-2-0--2-0---0--0----0---0-0--0-0-0-----|

G1 2x
 
 -|----------------------------------------------------------------------------|
 -|----------------------------------------------------------------------------|
 -|----------------------------------------------------------------------------|
 -|-------------------------------------------------9--9----9---9-9--9-9-9-----|
 -|-----4--4-4--4-4---4-4-4-4--4--4--4-4-4-4--4-4---7--6----7---7-7--7-7-7-----|
 -|-----2--2-0--2-0---2-0-2-0--2--2--2-0-2-0--2-0---0--0----0---0-0--0-0-0-----|

G2 2x
 
 -|----------------------------------------------------------------------------|
 -|----------------------------------------------------------------9b----------|
 -|---11b13-11-9-11b13-9v-b11--------------------------------------9b----------|
 -|----------------------------11v--11-9----9b--11p9----11p9----9b----11vv-----|
 -|--------------------------------------11----------11------11----------------|
 -|----------------------------------------------------------------------------|

G2 Solo 1
 
 -|----------------------------------------------------------------------------|
 -|---3---2--2--2--------------------3--2---2---2------------------------------|
 -|---2---2--2--2---0---0--0--0------2--2---2---2---0---0--0--0--0--0--0--0----|
 -|---0---2--2--2---0---0--0--0------0--2---2---2---0---0--0--0--0--0--0--0----|
 -|-------0--0--0---3-/-5--5--5---------0---0---0---3-/-5--5--5--5--5--3--0----|
 -|----------------------------------------------------------------------------|

G1 3x
 
 -|-------9---------9----------------------------------------------------------|
 -|--9h12---12b14vv---12-9-------9-------9-------------------------------------|
 -|------------------------11b13---11b13---11b12-11b12-9-----------------------|
 -|------------------------------------------------------11--------------------|
 -|----------------------------------------------------------------------------|
 -|----------------------------------------------------------------------------|

[G2]  
 
 -|----------------------------------------------------------------------------|
 -|-------------------11b--9-9-------------------------------------------------|
 -|-----------9b------11b--9-9-------------------------------------------------|
 -|-9h11p9-------11-9----------------------------------------------------------|
 -|--------11------------------------------------------------------------------|
 -|----------------------------------------------------------------------------|
 -|----------------------------------------------------------------------------|
 -|---3---2--2--2--------------------3--2---2---2------------------------------|
 -|---2---2--2--2---0---0--0--0------2--2---2---2---0---0--0--0--0--0--0--0----|
 -|---0---2--2--2---0---0--0--0------0--2---2---2---0---0--0--0--0--0--0--0----|
 -|-------0--0--0---3-/-5--5--5---------0---0---0---3-/-5--5--5--5--5--3--0----|
 -|----------------------------------------------------------------------------|

G1 Verse 2 3x
 
 -|----------------------------------------------------------------------------|
 -|----------------------------------------------------------------------------|
 -|---11----------------------------11-----------------------------------------|
 -|---11--11-11-11---/-14-----------11--11--11--11---9-\-----------------------|
 -|----9--11-11-11-----14------------9--11--11--11---7-\-----------------------|
 -|--------9--9--9-----12----------------9---9---9-----------------------------|

G2 3x
 
 -|---------------------------------------0------------------------------------|
 -|---0-------------------0---------------1----0------------------------1------|
 -|---0-------0-----------0-----------0---0----0--------0---------------0------|
 -|---3-------2-----------3-----------2---2----3--------2---------------2------|
 -|---3-------3-----------3-----------3---3----3--------3------2--------3------|
 -|---1-------0-----------1-----------0---0----1--------0----------------------|

G1 Bridge
 
 -|---------------------12v--9----------------12----9--12----------------------|
 -|----9vv---12v----------------12v-------9---12----9--12-----12vv-------------|
 -|---------------------------------------9-------------------------11-11h13---|
 -|---------------------------------------9------------------------------------|
 -|----------------------------------------------------------------------------|
 -|----------------------------------------------------------------------------|

G2 Bridge w/ delay
 
 -|----------------------------------------------------------------------------|
 -|----12------------------14b--b---15-15-15-15--------------------------------|
 -|-------11--11h13------------------------------------------------------------|
 -|----------------------------------------------------------------------------|
 -|----------------------------------------------------------------------------|
 -|----------------------------------------------------------------------------|

G2 hold bend into Chorus
 
 -|----------------------------------------------------------------------------|
 -|---3---------------3--------------3-----------------------------------------|
 -|---2----2--2--2----2----2--2--2---2--2--2--2---2---0---0--0-0---------------|
 -|---0----2--2--2----0----2--2--2---0--2--2--2---2---0---0--0-0---------------|
 -|--------0--0--0---------0--0--0------0--0--0---0---x---x--x-x---------------|
 -|---------------------------------------------------3---3--3-3---------------|

G1 Chorus 4x
 
 -|----------------------------------------------------------------------------|
 -|--15-15-15-15-15-16-16-16-16-16-16-17-17-17-17-17-17-18-18-18-18-18---------|
 -|----------------------------------------------------------------------------|
 -|----------------------------------------------------------------------------|
 -|----------------------------------------------------------------------------|
 -|----------------------------------------------------------------------------|
 -|-12b14vvv-9h12p9----9---------------9---------------------------------------|
 -|-----------------12---12b14vvvvvvv----12p9----9-----------------------------|
 -|-------------------------------------------11---11b13---13-12r11-9vvvvv-----|
 -|----------------------------------------------------------------------------|
 -|----------------------------------------------------------------------------|
 -|----------------------------------------------------------------------------|

hold bend
 
 -|-----------------------------------------------12-14b16----r14b16r14-b16r14-|
 -|---------9----------------------------------12------------------------------|
 -|---------9---11b13-11-9-----11b13-11----/13---------------------------------|
 -|-11-9-------------------11-----------11-------------------------------------|
 -|------11--------------------------------------------------------------------|
 -|----------------------------------------------------------------------------|

w/ delay
 
 -|------b16r14-----b16r14--------------b16r14p12-----b14r12p9----9------------|
 -|---------------------------b16r14---------------------------12---12b14------|
 -|----------------------------------------------------------------------------|
 -|----------------------------------------------------------------------------|
 -|----------------------------------------------------------------------------|
 -|----------------------------------------------------------------------------|

w/ delay
 
 -|----b14r12p9----9-----------b14r12p9----9-----------------------------------|
 -|-------------12---12b14--------------12---9-\-------5vvvvvv-----------------|
 -|----------------------------------------------------------------------------|
 -|----------------------------------------------------------------------------|
 -|----------------------------------------------------------------------------|
 -|----------------------------------------------------------------------------|

w/ delay delay off
 
 -|--9---------9--9---9------11----------12------12--------14------------------|
 -|-12b14vvvv-14-14r-12b14vv-14b16-16vv--15b17vv-15b17r15--17b19vv-------------|
 -|----------------------------------------------------------------------------|
 -|----------------------------------------------------------------------------|
 -|----------------------------------------------------------------------------|
 -|----------------------------------------------------------------------------|
 -|----------------------------------------------------------------------------|
 -|-9-9----11-9vv-----9-9----11-9v-----9-9----11b12r11-9--11b12r11p9-11v-------|
 -|-9-9----11-9vv-----9-9----11-9v-----9-9----11b12r11-9--11b12r11p9-11v-------|
 -|-----11--------11------11-------11------11----------------------------------|
 -|----------------------------------------------------------------------------|
 -|----------------------------------------------------------------------------|
 -|----------------------------------------------------------------12----14----|
 -|-------------------------------------------------------------12----12-------|
 -|-11b13r11p9-11p9------11b13r11p9-11-9---------11b13r11p9-/13----------------|
 -|--------------------------------------9-------------------------------------|
 -|-----------------11---------------------11-10-------------------------------|
 -|----------------------------------------------------------------------------|
 -|-14b16-r14--------12-14b16-14b16-14b16r14p12-14-12b-------------------------|
 -|------------12-14-----------------------------------14-12-14p12----14p12----|
 -|----------------------------------------------------------------13-------13-|
 -|----------------------------------------------------------------------------|
 -|----------------------------------------------------------------------------|
 -|----------------------------------------------------------------------------|
 -|---------------------------------------------------------------12-----------|
 -|-14p12----14p12----14p12-------------------------9----9----9-9--x-----------|
 -|-------13-------13-------13\--9vv----------------9----9----9-9--9-11--------|
 -|----------------------------------11-----9-9-11----11---11------------------|
 -|--------------------------------------11------------------------------------|
 -|----------------------------------------------------------------------------|
 -|--------12-12----------------12---14---15--/--/--21-------------------------|
 -|-9----9-12-12-9--11-12-11-9---x----x----x---------x-------------------------|
 -|-9----9-------9--11-12-11-9---9---11---12--/--/--18-------------------------|
 -|---11-------------------------/----/----/---------/-------------------------|
 -|------------------------------/----/----/---------/-------------------------|
 -|----------------------------------------------------------------------------|

tremelo pick, gradually slide up
 
 -|----------------------------------------------------------------------------|
 -|---3---2--2--2--------------------3--2---2---2------------------------------|
 -|---2---2--2--2---0---0--0--0------2--2---2---2---0---0--0--0--0--0--0--0----|
 -|---0---2--2--2---0---0--0--0------0--2---2---2---0---0--0--0--0--0--0--0----|
 -|-------0--0--0---3-/-5--5--5---------0---0---0---3-/-5--5--5--5--5--3--0----|
 -|----------------------------------------------------------------------------|

G1 Chorus Repeat until end
 
 -|----------------------------------------------------------------------------|
 -|----------------------------------------------------------------------------|
 -|---11----------------------------11-----------------------------------------|
 -|---11--11-11-11---/-14-----------11--11--11--11---9-\-----------------------|
 -|----9--11-11-11-----14------------9--11--11--11---7-\-----------------------|
 -|--------9--9--9-----12----------------9---9---9-----------------------------|

G3 Repeat

Important: The song above is NOT stored on the Chordie server. The original song is hosted at www.guitaretab.com. Chordie works as a search engine and provides on-the-fly formatting. Chordie does not index songs against artists'/composers' will. To remove this song please click here.

Text color:
Chord color:
Chord grids: 
Font size:    
Page size: 

G2
Rate #1 of 1 versions

Jango Player

Login - add to songbook

SHARE PAGE  




You need to log in to post comments