Guitar Tabs, Chords and Lyrics
Major upgrade!! After one year development the new version of Chordie is now online! Please give feedback.


Ashes  Pepper

Song: Ashes
Artist: Pepper
Album: In with the Old
Alright kids, every tab out there for Ashes is either wrong or incomplete, so here ya
I'm not totally sold on the final chord in the bridge, but other than that this tab is
Great song, too.
Intro/Verse/Outro
You can do either power chords or full chords, both sound good. They play the full chords on the album.
[Em] [C] [G] [D]  
 
 -(7)(7)(7)(7)----------------(3)(3)(3)(3)----------------|
 -(8)(8)(8)(8)--(5)(5)(5)(5)--(3)(3)(3)(3)--(7)(7)(7)(7)--|
 --9--9--9--9----5--5--5--5---(4)(4)(4)(4)---7--7--7--7---|
 --9--9--9--9----5--5--5--5----5--5--5--5----7--7--7--7---|
 --7--7--7--7----3--3--3--3----5--5--5--5----5--5--5--5---|
 ------------------------------3--3--3--3-----------------|

[Em] [C] [G] [D] [D#]  
 
 -(7)(7)(7)(7)----------------(3)(3)(3)(3)----------------|
 -(8)(8)(8)(8)--(5)(5)(5)(5)--(3)(3)(3)(3)--(7)(7)(7)/(8)-|
 --9--9--9--9----5--5--5--5---(4)(4)(4)(4)---7--7--7-/-8--|
 --9--9--9--9----5--5--5--5----5--5--5--5----7--7--7-/-8--|
 --7--7--7--7----3--3--3--3----5--5--5--5----5--5--5-/-6--|
 ------------------------------3--3--3--3-----------------|

[Em] It?s been so [C]long
It?s [G]hard to breathe when the [D]trust is gone
[Em] A face of [C]steal
G D ->Dm
Just melts away in the weather
[Em]You got a lot to[C] weigh so weigh it
If [G]you got a lot to [D]say just say it
[Em]Aren?t you tired of w[C]astin fuel?
So [G]now I hand the [D]fuse to you
Chorus
[G] [A] [C] [C] [D]  
 
 PM-------------| PM--------| PM--------| PM------------|
 ------------------------------------------------------------|
 ------------------------------------------------------------|
 -----------------------------5-5-----------5-5-----7-7------|
 -5-5-----------7-7-----------5-5-----------5-5-----7-7------|
 -5-5-----------7-7-----------3-3-0-3-0-3-0-3-3-0-3-5-5------|
 -3-3-0-3-0-3-0-5-5-0-5-0-5-0--------------------------------|

[G] [A] [C] [D]  
 
 PM-------------| PM--------| PM-------------------|
 -----------------------------------------------------|
 -----------------------------------------------------|
 -----------------------------5-5------------7--------|
 -5-5-----------7-7-----------5-5------------7--------|
 -5-5-----------7-7-----------3-3-0-3-0-3-0--5--------|(hold)
 -3-3-0-3-0-3-0-5-5-0-5-0-5-0-------------------------|

[G]Burn it all, let?s [A]burn it all
Let [C]fire fall, let [C]fire fall[D]
What?s [G]done is done, it?s [A]in the past
Its [C]ashes[C] [D]
Im [G]tired of you, you?re [A]tired of me
I [C]hate the things you [C]said to me[D]
Now [G]here?s your chance to [A]take it back
Its [C]ashes
[D]Ash, ash
Intro/Verse/Outro 1x
Em c G
Maybe I should drive home
[D]Far from sober
[Em] Maybe [C]I should sleep a[G]lone
Cause [D]I don?t have a rubber
[Em]You got a lot to [C]weigh so weigh it
If [G]you got a lot to [D]say just say it
[Em]Aren?t you tired of [C]wastin fuel?
So [G]now I hand the [D]fuse to you
Bridge - Not quite lined up right with the lyrics, but you get the idea...
 
 ------------------8----8----8------------10----10----10----|
 ------------------8----8----8------------10----10----10----|
 --------------9-----------------------12-------------------|
 --------------9-----------------------12-------------------|
 ----------7-----------------------10-----------------------|
 -----------------------------------------------------------|

I run away just to see, how much it really means to me
 
 ------------------8----8----8---|
 ------------------8----8----8---|
 --------------9-----------------|
 --------------9-----------------|
 ----------7---------------------|
 --------------------------------|

Oh my God, who in the hell has been washing your brain,
 
 ----------10----10----10----|
 ----------10----10----10----|
 -------12-------------------|
 -------12-------------------|
 ---10-----------------------|
 ----------------------------|

Just loose the girl, and start again
 
 -------------------10----------------------10----------------------|
 -------------------10----------------------10----------------------|
 -------9----9------12------------9---99----12----------------------|
 -------9----9------12------------9---99----12----------------------|
 -----7------7------10---------7------77----10----------------------|
 -------------------------------------------------------------------|

Maybe then, Maybe then, Maybe then, Maybe then
Chorus
[G]Burn it all, let?s [A]burn it all
Let [C]fire fall, let [C]fire fall[D]
What?s [G]done is done, it?s [A]in the past
Its [C]ashes[C] [D]
Im [G]tired of you, you?re [A]tired of me
I [C]hate the things you [C]said to me[D]
Now [G]here?s your chance to [A]take it back
Its [C]ashes
[D]Ash, ash
Intro/Verse/Outro 2x, End on Em
Questions/Comments - glyserinesoul@gmail.com

Important: The song above is NOT stored on the Chordie server. The original song is hosted at www.guitaretab.com. Chordie works as a search engine and provides on-the-fly formatting. Chordie does not index songs against artists'/composers' will. To remove this song please click here.

Text color:
Chord color:
Chord grids: 
Font size:    
Page size: 

A C D D# Em G
Rate #1 of 5 versions

Jango Player

Login - add to songbook

SHARE PAGE  




You need to log in to post comments