Guitar Tabs, Chords and Lyrics
Server problems seems to be fixed. Chordie has been experiencing problems with songs disappearing. These issues now seems to be fixed, but still verifying the fix. If you find anything strange, please email admin@chordie.com.


Stone Love  Pepper

First of all... PEPPER ROCKS!!
Second of all, this is my favorite song that they have made so far, and for that
Id like to make their cord sheet. Have fun
Intro
 
 E--------------------------------------------|
 B--------------------------------------------|
 G--------------------------------------------|
 D--------------------------------------------|
 A----4---4-6-7//////---------------2----2----|
 E-------4-----------0-2-4-4----------4-------|x2

C# minor,
 
 E-----4--------------|
 B-----5--------------|
 G-----6--------------|
 D-----6--------------|
 A-----4--------------|
 E-----x--------------|

G# minor
 
 E-----4--------------|
 B-----4--------------|
 G-----5--------------|
 D-----6--------------|
 A-----6--------------|
 E-----4--------------|
 E--------------------------------|
 B--------------------------------|
 G--------------------------------|
 D--------------------------------|
 A----4---4-6-7//////-------------|
 E-------4-----------0-2-4--4-----|

[C#min]Stone love with the number on[G#min]e sound[C#min]
A four four in the backgro[G#min]und, a platinum selector of the[C#min] time
[G#min]Don't watch my size in this hall[C#min]
While my backs against[G#min] the wall
[C#min] Take a ride, competition [G#min]take a ride
[C#min] Pull it operator, try the [G#min]other side
[C#min] Thought it was over, so far from [G#min]done
[C#min] As they dance into [G#min]the sun
Some [C#min]bring up new style holding trophy cups
[G#min]Rory select while my speakers erupt
The sound's sw[C#min]eeter with an echo chamber
Don't yo[G#min]u know that they are the danger
Three b[C#min]ottles of Cristal and it's agreed
The best c[G#min]ould only come from the Don Wesley
Clo[C#min]se my eyes when I take a [G#min]ride
 
 E----------------------4------------|
 B------------------4----------------|
 G--------------5--------------------|
 D-----------6-----------------------|
 A--------6--------------------------|
 E-----4-----------------------------|

[C#min]Fold up the bag in a yard style
[G#min]Don't worry 'bout that you see it's all natural
[C#min]Police chasing this bandilero
[G#min]Running down the road with my thick payroll
[C#min]One stop was my music shop
[G#min] Where I heard this guitar screamin'
solo
 
 E-----9--9--9--7--------------------------------------------------------------------|
 B-------------------9--7------7---9--10?9~~~----------------------------------------|
 G---------------------------9-----------------------9////-8h9p8--6-8-6-8/9----------|
 D-----------------------------------------------------------------------------------|
 A-----------------------------------------------------------------------------------|
 E-----------------------------------------------------------------------------------|
 E-----------------11h14p11-12-11------------------------------------------------|
 B---------9h10------------------------------------------------------------------|
 G?8h9-------------------------------12-11-------9---9h11p9/8-8-8----------------|
 D------------------------------------------------11-----------------------------|
 A-------------------------------------------------------------------------------|
 E-------------------------------------------------------------------------------|
 E-------------------------------------------------------------------|
 B-------------------------------------------------------------------|
 G--88-8-666--66-----------------------------------------------------|
 D-------------------9-6----------6-7-6-7-9-77-6---------------------|
 A-------------------------9-7-9------------------- 9///-------------|
 E-------------------------------------------------------------------|

(mega EFX)
Some bring up new style holding trophy cups
[Gmin/G#min]Rory select while [Gmin/G#min]my speakers erupt
The sound's sweeter with an echo chamber
[Gmin/G#min]Don't you know tha[Gmin/G#min]t they are the danger
[C#min]Three bottles of Cristal and it's agreed
The best c[G#min]ould only come from the Don Wesley
Clo[C#min]se my eyes and t[G#min]ake a ride
[C#min] Take a ride, [G#min]everybody take a ride
[C#min] Take a ride, [G#min]everybody take a ride
(until it ends)
Im deciphering the ending licks Kaleo throws in, they sound like hes playing with
the solo so try it out.

Important: The song above is NOT stored on the Chordie server. The original song is hosted at www.guitaretab.com. Chordie works as a search engine and provides on-the-fly formatting. Chordie does not index songs against artists'/composers' will. To remove this song please click here.

Text color:
Chord color:
Chord grids: 
Font size:    
Page size: 

C#min G#min
Rate #1 of 2 versions

Jango Player

Login - add to songbook

SHARE PAGE  



You need to log in to post comments