Guitar Tabs, Chords and Lyrics
Major upgrade!! After one year development the new version of Chordie is now online! Please give feedback.


Reporter  Per Gessle

Reporter
Per Gessle
Lead guitar
[D]W E E E Q Q.
 
 E||-------|-------||--------------------|-----------------------|
 B||-------|-------||---7----------------|--8--7-----------------|
 G||-------|-------||*--7----------------|--------9--7----7------|
 D||-------|-------||*--7----------------|-----------------------|
 A||-------|-------||--------------------|-----------------------|
 E||-------|-------||--------------------|-----------------------|

[C]W E E E Q Q. [G]W
 
 -------------------|-----------------------|-------------------|
 --5----------------|--8--7-----------------|--0----------------|
 --5----------------|--------9--7----7------|--0----------------|
 --5----------------|-----------------------|--0----------------|
 -------------------|-----------------------|-------------------|
 -------------------|-----------------------|-------------------|

E E E Q Q. [D]W E E E E E E E E
 
 -----------------------|-------------------|---------------------------||
 --8--7-----------------|--7----------------|---------------------------||
 --------9--7----7------|--7----------------|--5--6--7-----5-----5--6--*||
 -----------------------|--7----------------|-----------7-----7--------*||
 -----------------------|-------------------|---------------------------||
 -----------------------|-------------------|---------------------------||

Duration Legend
 
 ---------------

W - whole
H - half
Q - quarter
E - 8th
S - 16th
T - 32nd
X - 64th
. - note dotted
|-n-| - n-tuplets
Tablature Legend
 
 ----------------

L - tied note
x - dead note
g - grace note
(n) - ghost note
> - accentuded note
NH - natural harmonic
AH - artificial harmonic
TH - tapped harmonic
SH - semi harmonic
PH - pitch harmonic
h - hammer on
p - pull off
b - bend
br - bendRelease
pb - preBend
pbr - preBendRelease
brb - bendReleaseBend
\n/ - tremolo bar dip
\n - tremolo bar dive
-/n - tremolo bar Release up
/n\ - tremolo bar inverted dip
/n - tremolo bar return
-\n - tremolo bar Release down
S - shift slide
s - legato slide
/ - slide into from below or out of upwards
\ - slide into from above or out of downwards
~ - vibrato
W - wide vibrato
tr - trill
TP - tremolo picking
T - tapping
S - slap
P - pop
< - fade in
^ - brush up
v - brush down

Important: The song above is NOT stored on the Chordie server. The original song is hosted at www.guitaretab.com. Chordie works as a search engine and provides on-the-fly formatting. Chordie does not index songs against artists'/composers' will. To remove this song please click here.

Text color:
Chord color:
Chord grids: 
Font size:    
Page size: 

C D G
Rate #1 of 2 versions

Jango Player

Login - add to songbook

SHARE PAGE  



You need to log in to post comments