Guitar Tabs, Chords and Lyrics
Major upgrade!! After one year development the new version of Chordie is now online! Please give feedback.


Gungar  Per Gessle

 
 -------------------------------------------------------------------------

GUNGAR ? Per Gessle
 
 -------------------------------------------------------------------------

Tabbed by: Kengus
Standard tuning
INTRO
[Am] [Dm] [G]  
 
 e|-5---3-------3-----5---3-------3-----5---3-------3-----5---3-------3---|
 B|---5---5-3-5---5-----5---5-3-5---5-----5---5-3-5---5-----5---5-3-5---5-|
 G|-----------------------------------------------------------------------|
 D|-----------------------------------------------------------------------|
 A|-----------------------------------------------------------------------|
 E|-----------------------------------------------------------------------|

[Am] [Dm] [G] [Am] [Dm] [G]  
 
 e|-5---3-------3-----5---3-------3-----5---3-------3-----5---3-------3---|
 B|---5---5-3-5---5-----5---5-3-5---5-----5---5-3-5---5-----5---5-3-5---5-|
 G|-----------------------------------------------------------------------|
 D|-----------------------------------------------------------------------|
 A|-----------------------------------------------------------------------|
 E|-----------------------------------------------------------------------|

[Am] [Dm] [G]  
 
 e|-5---3-------3-----5---3-------3-----|
 B|---5---5-3-5---5-----5---5-3-5---5---|
 G|-------------------------------------|
 D|-------------------------------------|
 A|-------------------------------------|
 E|-------------------------------------|

VERSE1
Jag sitter och g[Am]ungar,[Dm] [G] jag sitter och gu[Am]ngar[Dm] [G]
Fram och tillb[Am]aka, [Dm] [G] vill du vara me[Am]d?[Dm] [G]
VERSE2
Jag sitter och tä[Am]nker,[Dm] [G] dagdrömmer och blu[Am]ndar[Dm] [G]
Solen den vä[Am]rmer,[Dm] [G] vill du vara m[Am]ed?[Dm] [G]
Du får vara m[Am]ed[Dm] [G]
CHORUS
[C] Och får jag frågan[G], om jag vågar[C]
Följa med dig[G] hem, prova, fråga
[Am]Svaret är så s[F]jälvklart enke[G]lt, a-ha
INTERLUDE (repeat intro)
Am Dm G x4
VERSE3
Jag sitter och g[Am]ungar,[Dm] [G] ett bär på min[Am] tunga[Dm] [G]
En koltrast med [Am]ungar,[Dm] [G] bor här bredv[Am]id[Dm] [G]
Vill du vara me[Am]d?[Dm] [G]
CHORUS
[C] Och får jag fråg[G]an, om jag vågar[C]
Följa med dig [G]hem, prova, fråga
[Am]Svaret är så s[F]jälvklart enke[G]lt, å-hå
[Am]Svaret är så s[F]jälvklart enke[G]lt, tro mig
[Am]Svaret är så [F]sällsynt enke[G]lt, a-ha
INTERLUDE/OUTRO
[Am] ([Dm]Sitter och [G]gungar)
[Am] ([Dm]Sitter och [G]gungar)
[Am] ([Dm]Sitter och [G]gungar)
Vill du vara m[Am]ed?[Dm] [G]
Vill du vara m[Am]ed?[Dm] [G]
Am Dm G (repeat until end)
=========================================================================

Important: The song above is NOT stored on the Chordie server. The original song is hosted at www.guitaretab.com. Chordie works as a search engine and provides on-the-fly formatting. Chordie does not index songs against artists'/composers' will. To remove this song please click here.

Text color:
Chord color:
Chord grids: 
Font size:    
Page size: 

Am C Dm F G
Rate #1 of 2 versions

Jango Player

Login - add to songbook

SHARE PAGE  



You need to log in to post comments