Guitar Tabs, Chords and Lyrics
Server problems seems to be fixed. Chordie has been experiencing problems with songs disappearing. These issues now seems to be fixed, but still verifying the fix. If you find anything strange, please email admin@chordie.com.


Ship Lost at Sea  Phantom Planet

 
 -------------------------------------------------------------------------------

SHIP LOST AT SEA - Phantom Planet
 
 -------------------------------------------------------------------------------

Tabbed by: Olivia Weise
Email: bl4ckp34rl@att.net
Tuning: EADGBe
 
 ---------------------------------------

CHORDS
Verses:
[C5] [G5] [F5] [E5]  
 
 e|---------------------------------|
 B|---------------------------------|
 G|---------------------------------|
 D|---------------------------------|
 A|--10-----5------3------2---------|
 E|--8------3------1------0---------|

Chorus:
[Am] [D] [G] [C]  
 
 e|--0------2------3------0---------|
 B|--1------3------3------1---------|
 G|--2------2------0------0---------|
 D|--2------0------0------2---------|
 A|--0-------------2------3---------|
 E|----------------3------3---------|

Bridge:
[G#7] [D#7] [C#5] [G#] [A#] [C#] [C5]  
 
 e|--4------6-------------4------6------9----------|
 B|--4------8-------------4------6------9----------|
 G|--5------6------6------5------7------10-----5---|
 D|--4------8------6------6------8------11-----5---|
 A|--6------6------4------6------8------11-----3---|
 E|--4-------------4------4------6------9------3---|
 ---------------------------------------

Intro before lyrics (play this for verses and end of song also)
 
 e|---------------------------------------------------------------------------|
 B|---------------------------------------------------------------------------|
 G|---------------------------------------------------------------------------|
 D|---------------------------------------------------------------------------|
 A|---10---12---10-10---12---10-10---12---10-10--12--10-----------------------|
 E|---8----8----8--8----8----8--8----8----8--8---8---8------------------------|
 e|---------------------------------------------------------------------------|
 B|---------------------------------------------------------------------------|
 G|---------------------------------------------------------------------------|
 D|---------------------------------------------------------------------------|
 A|---5---7----5--5----7----5--5----7----5--5---7---5-------------------------|
 E|---3---3----3--3----3----3--3----3----3--3---3---3-------------------------|
 e|---------------------------------------------------------------------------|
 B|---------------------------------------------------------------------------|
 G|---------------------------------------------------------------------------|
 D|---------------------------------------------------------------------------|
 A|---3---5----3--3----5----3--3----5----3--3---5---3-------------------------|
 E|---1---1----1--1----1----1--1----1----1--1---1---1-------------------------|
 e|---------------------------------------------------------------------------|
 B|---------------------------------------------------------------------------|
 G|---------------------------------------------------------------------------|
 D|---------------------------------------------------------------------------|
 A|---2---4----2--2----4----2--2----4----2--2---4---2-------------------------|
 E|---0---0----0--0----0----0--0----0----0--0---0---0-------------------------|

[C5]Hey!
Arms of the ocean reach o[G5]ut for you
Rusty p[F5]ipes, can't help calling for you [E5]too
The brine is finer than w[C5]ine
But be careful not to dr[G5]ink too much
'Cause there are re[F5]mains, on the bottom of that [E5]cup
If you feel you've had en[Am]ough, of that salty st[D]uff
I'm on the be[G]ach, reading a b[C]ook
Lost in a p[Am]age, lost for an a[D]ge
I can b[G]e your bonfire, and y[C]ou can be my ship out at sea
[C5]Look!
I'm not after your cha[G5]rity
And my de[F5]ar, I don't want you pleased with yo[E5]urself
What is that feeling of pr[C5]ide, when you
Throw your coin in a beg[G5]gars cap?
Selfless[F5] acts are quite selfish when you think about 'em like t[E5]hat.
But I've been thinking of y[Am]ou, and how to imp[D]rove
'Cause I'm in a f[G]ix, your heart is a t[C]ool
I'm someone who's cl[Am]ose
Could be me right? Who kno[D]ws?
You could b[G]e my handout, and I[C]'ll be your good deed for the day
I w[G#7]ant a puzzle I don't h[D#7]ave to be
[G#7]A watch I don't have to w[D#7]ind (yeah)
[C#5]I really wanna find your mi[G#]ssing piece, and make you m[A#]ine
All m[C#]ine, all mine![C5]
So if you're hopeless and b[Am]eat
Lower than your f[D]eet
Or up to your ne[G]ck, or down on your kn[C]ees
In way too d[Am]eep
You're out of i[D]deas
I can [G]be your brainchild, if y[C]ou promise to take care of me. (woah)
[G]I could be your bonfire, and y[C]ou could be my ship out at sea (one more time!)
[G]I can be your boyfriend, and y[C]ou can pretend not to know me!
===============================================================================

Important: The song above is NOT stored on the Chordie server. The original song is hosted at www.guitaretab.com. Chordie works as a search engine and provides on-the-fly formatting. Chordie does not index songs against artists'/composers' will. To remove this song please click here.

Text color:
Chord color:
Chord grids: 
Font size:    
Page size: 

A# Am C C# C#5 C5 D D#7 E5 F5 G G# G#7 G5
Rate #1 of 2 versions

Login - add to songbook

SHARE PAGE  




You need to log in to post comments