Guitar Tabs, Chords and Lyrics
Major upgrade!! After one year development the new version of Chordie is now online! Please give feedback.


In the Air Tonight  Phil Collins

In the Air Tonight - Phil Collins
Tuning: DADGBe (Drop D)
Listen closely to the song because some of the guitar parts are hard to hear. (Note: the
are played by a keyboard)
0:05 0:26
 
 |-----------| |-----------------|
 |-----------| |-13h15b17----r15-|
 |-----------| |-----------------|
 |-0---------| |-----------------|
 |-----------| |-----------------|
 |-0---------| |-----------------|

0:32
Dmin C A# x2
[Dmin]I can feel it [C]coming in the air toni[A#]ght, Oh Lor[C]d
[Dmin]I\'ve been waiting for this mom[C]ent, all my li[A#]fe, Oh L[C]ord
[Dmin]Can you feel it c[C]oming in the air tonight[A#], Oh Lo[C]rd, Oh Lord
[Dmin]  
 
 |-----------|
 |-----------|
 |-----------|
 |-0---------|
 |-----------|
 |-0---------|

[Dmin]Well, if you told me you were drowning
[C]I would not lend a hand
[A#]I\'ve seen your face before my friend
[C]But I don\'t know if you know who I am
 
 |-----------|
 |-----------|
 |-----------|
 |-----------|
 |-3---------|
 |-----------|

(start from a low volume and raise it up)
[Dmin]Well, I was there and I saw what you did
[C]I saw it with my own two eyes
 
 |---------------|
 |---------------|
 |---------------|
 |-12b14-----r12-|
 |---------------|
 |---------------|

[A#]So you can wipe off the grin, I know where you\'ve been
[C]It\'s all been a pack of lies
 
 |------------|

|-15b16r14---|
|-14b15r14---|
 
 |------------|
 |------------|
 |------------|

[Dmin]And I can feel[C] it coming in the air [A#]tonight,
|-15b16r15---|
|-15b16r15---|
 
 |------------|
 |------------|
 |------------|
 |------------|

[C]Oh Lord
 
 |-/13---------|
 |-/13--13--15-|
 |------12--14-|
 |-------------|
 |-------------|
 |-------------|

[Dmin]I\'ve been waiting for this mom[C]ent for all my[A#] life, O[C]h Lord
[Dmin]I can feel it in [C]the air tonig[A#]ht,
 
 |---------------|
 |---------------|
 |-12b13-----r12-|
 |---------------|
 |---------------|
 |---------------|

[C]Oh Lord
[Dmin]And I\'ve been waiting for this mom[C]ent all my li[A#]fe,
 
 |---------------|
 |---------------|
 |-12b13-----r12-|
 |---------------|
 |---------------|
 |---------------|

Oh Lo[C]rd, Oh Lord
[Dmin]  
 
 |-----------|
 |-----------|
 |-----------|
 |-0---------|
 |-----------|
 |-0---------|

[Dmin]Well I remember, I remember don\'t worry[C]
How could I ever forget, it\'s the firs[A#]t time, the last time we ever [Dmin]met
But I know the reason why you keep your silence up[C], no you don\'t fool me
[A#]The hurt doesn\'t show; but the pain still grows
It\'s no stranger to you or [Dmin]me
(drums and bass come in)
Dmin * C A# C
I can feel it coming in the air tonight, Oh Lord
 
 |------------------|
 |------------------|
 |------------------|
 |-----10--------10-|
 |-12--------12-----|
 |------------------|(guitar plays this after each line)

Dmin * C A# C
I\'ve been waiting for this moment, all my life, Oh Lord
Dmin * C A# C
I can feel it in the air tonight, Oh Lord, Oh Lord
Dmin * C A# C
I\'ve been waiting for this moment, all my life, Oh Lord
Dmin * C A# C
I can feel it coming in the air tonight, Oh Lord
Dmin * C A# C
I\'ve been waiting for this moment, all my life, Oh Lord
Dmin * C A# C
I can feel it in the air tonight, Oh Lord, Oh Lord
Dmin * C A# C
I\'ve been waiting for this moment, all my life, Oh Lord
* guitar plays this
|-----|
|-3---|
|-2---|
|-0---|
|-----|
|-0---|

Important: The song above is NOT stored on the Chordie server. The original song is hosted at www.guitaretab.com. Chordie works as a search engine and provides on-the-fly formatting. Chordie does not index songs against artists'/composers' will. To remove this song please click here.

Text color:
Chord color:
Chord grids: 
Font size:    
Page size: 

A# C Dmin
Rate #1 of 8 versions

Login - add to songbook

SHARE PAGE  



You need to log in to post comments