Guitar Tabs, Chords and Lyrics
Server problems seems to be fixed. Chordie has been experiencing problems with songs disappearing. These issues now seems to be fixed, but still verifying the fix. If you find anything strange, please email admin@chordie.com.


Home  Phillip Phillips

 
 -------------------------------------------------------------------------------

Home - Philip Philips
 
 -------------------------------------------------------------------------------

Tabbed by: Caleb
Intro:
[C] [Fsus2]  
 
 e|------------------------------------------------|
 B|-----1---------1----------1--------1------------|
 G|-----0-0-------0-0--------0-0------0-0----------| Keep repeating this picking pattern
 D|---------2---------2----3-----3--3-----3--------| through the verse.
 A|---3----------3---------------------------------|
 E|------------------------------------------------|

Verse 1
[C]Hold on [F]to me as we go[C] [F]
[C]As we ro[F]ll down this unfamiliar road[C] [F]
And although this waaaaave is[Am] st[-]ri[F]ngin' us along[C] [F] [C] [F]
Just know y[C]ou're not alone[Am]
Cause I'm gonna make this [F]place your home[G] [C]
Verse 2
[C]Settle d[F]own, it'll all be clear[C] [F]
[C]Don't pay no mind to the demons, they fill yo[F]u with fear.[C] [F]
T[Am]rouble it might drag you down[F]
If you get lost [C]you can always be found[G]
Just know [C]you're not alone[Am]
Cause I'm gonna make this [F]place your home[G] [C]
Bridge
Ooo[Am]oohhh-oooooh[C]
Ooo[Am]ooohhh - oooooh[G]
Am C G (repeat until you're done oh-ing)
Ooooohhh-oooooh
Repeat verse 2
Here's the little mumford riff:
[C] [Am] 
Just know you're not a - lone....
 
 e|----------------------------------------|
 B|-------1---------------------1----------|
 G|-------0---------------------2----------|
 D|-------2---------------------2----------|
 A|-------3-----2------0--------0----------|
 E|------------------------3---------------|

[F] [G] [C] 
Cause I'm gonna make this place your home
 
 e|---------------------------------------------------------------------------|
 B|---------------1------------------------1----------------------------------|
 G|---------------0------------------------0----------------------------------|
 D|---------------3-----2-----0------------2----------------------------------|
 A|---------------------------------2------3----------------------------------|
 E|---------------------------------------------------------------------------|

Enjoy. Go impress some girls.

Important: The song above is NOT stored on the Chordie server. The original song is hosted at www.guitaretab.com. Chordie works as a search engine and provides on-the-fly formatting. Chordie does not index songs against artists'/composers' will. To remove this song please click here.

Text color:
Chord color:
Chord grids: 
Font size:    
Page size: 

Am C F Fsus2 G
Rate #2 of 16 versions

Jango Player

Login - add to songbook

SHARE PAGE  




You need to log in to post comments