Guitar Tabs, Chords and Lyrics
Login is temporarily disabled for some users. Do not panic. Will be back in an hour or two. DO NOT REREGISTER!!


Gone, Gone, Gone  Phillip Phillips

Title: Gone Gone Gone
Artist: Phillip Phillips
Album: The World from the Side of the Moon
Track 3
2012
Capo on 4th
I have altered a couple of chords slightly... but it can be played with the real chords:)
Enjoy:)
Hint: When Strumming these chords, for Asus4 and Bm, mute the 6th string with your thumb...
[D]2 [Asus4] 0 [Bm]0 [G]3 [A]0
[3]2 [3]2 [3]2 [3]0 [2]2
0 2 0 0 2
x 0 2 2 0
x x x 3 x
Intro
[D] [D]  
 
 E |-------------|-------------|-------------|-------------|
 B |-----3-------|-----3-------|-----3-------|-----3-------|
 G |-------2---2-|-------2---2-|-------2---2-|-------2---2-|
 D |-0-0-----0---|-0-0-----0---|-0-0-----0---|-0-0-----0---|
 A |-------------|-------------|-------------|-------------|
 E |-------------|-------------|-------------|-------------|

Verse 1
[D] [D]  
 
 E |-------------|-------------|-------------|-------------|
 B |-----3-------|-----3-------|-----3-------|-----3-------|
 G |-------2---2-|-------2---2-|-------2---2-|-------2---2-|
 D |-0-0-----0---|-0-0-----0---|-0-0-----0---|-0-0-----0---|
 A |-------------|-------------|-------------|-------------|
 E |-------------|-------------|-------------|-------------|

When life leaves you high and dry, I'll be at your door tonight
[Asus4] [Asus4]  
 
 E |-------------|-------------|-------------|-------------|
 B |-----3-------|-----3-------|-----3-------|-----3-------|
 G |-------2---2-|-------2---2-|-------2---2-|-------2---2-|
 D |---------2---|---------2---|---------2---|---------2---|
 A |-0-0---------|-0-0---------|-0-0---------|-0-0---------|
 E |-------------|-------------|-------------|-------------|

If you need help, if you need help
[Bm] [Bm]  
 
 E |-------------|-------------|-------------|-------------|
 B |-----3-------|-----3-------|-----3-------|-----3-------|
 G |-------2---2-|-------2---2-|-------2---2-|-------2---2-|
 D |---------0---|---------0---|---------0---|---------0---|
 A |-2-2---------|-2-2---------|-2-2---------|-2-2---------|
 E |-------------|-------------|-------------|-------------|

I'll shut down the city lights, I'll lie, cheat, I'll beg and bribe
[G] [G]  
 
 E |-------------|-------------|-------------|-------------|
 B |-----3-------|-----3-------|-----3-------|-----3-------|
 G |-------0---0-|-------0---0-|-------0---0-|-------0---0-|
 D |---------0---|---------0---|---------0---|---------0---|
 A |-------------|-------------|-------------|-------------|
 E |-3-3---------|-3-3---------|-3-3---------|-3-3---------|

To make you well, to make you well
[D] [D]  
 
 E |-------------|-------------|-------------|-------------|
 B |-----3-------|-----3-------|-----3-------|-----3-------|
 G |-------2---2-|-------2---2-|-------2---2-|-------2---2-|
 D |-0-0-----0---|-0-0-----0---|-0-0-----0---|-0-0-----0---|
 A |-------------|-------------|-------------|-------------|
 E |-------------|-------------|-------------|-------------|

When enemies are at your door, I'll carry you away from war
[Asus4] [Asus4]  
 
 E |-------------|-------------|-------------|-------------|
 B |-----3-------|-----3-------|-----3-------|-----3-------|
 G |-------2---2-|-------2---2-|-------2---2-|-------2---2-|
 D |---------2---|---------2---|---------2---|---------2---|
 A |-0-0---------|-0-0---------|-0-0---------|-0-0---------|
 E |-------------|-------------|-------------|-------------|

If you need help, if you need help
[Bm] [Bm]  
 
 E |-------------|-------------|-------------|-------------|
 B |-----3-------|-----3-------|-----3-------|-----3-------|
 G |-------2---2-|-------2---2-|-------2---2-|-------2---2-|
 D |---------0---|---------0---|---------0---|---------0---|
 A |-2-2---------|-2-2---------|-2-2---------|-2-2---------|
 E |-------------|-------------|-------------|-------------|

Your hope dangling by a string, I'll share in your suffering
[G] [G]  
 
 E |-------------|-------------|-------------|-------------|
 B |-----3-------|-----3-------|-----3-------|-----3-------|
 G |-------0---0-|-------0---0-|-------0---0-|-------0---0-|
 D |---------0---|---------0---|---------0---|---------0---|
 A |-------------|-------------|-------------|-------------|
 E |-3-3---------|-3-3---------|-3-3---------|-3-3---------|

To make you well, to make you well
Pre-Chorus
[G]Give me [D]reasons to [A]believe
That you would [G]do the [D]same for [A]me
Chorus
And I would do it for [G]yoooo[D]uuuu, for [Bm]yoooo[A]uuuu
Baby, [G]I'm not moving [D]on
I'll love you [Bm]long after you're [A]gone.
For [G]yoooo[D]uuuu, for [Bm]yoooo[A]uuuu.
You will [G]never sleep [D]alone
I'll love you [Bm]long after you're [A]gone
(Just Vocals)
And long after you're gone, gone, gone.
Instrumental
[D] [D]  
 
 E |-------------|-------------|-------------|-------------|
 B |-----3-------|-----3-------|-----3-------|-----3-------|
 G |-------2---2-|-------2---2-|-------2---2-|-------2---2-|
 D |-0-0-----0---|-0-0-----0---|-0-0-----0---|-0-0-----0---|
 A |-------------|-------------|-------------|-------------|
 E |-------------|-------------|-------------|-------------|

Verse 2
[D] [D]  
 
 E |-------------|-------------|-------------|-------------|
 B |-----3-------|-----3-------|-----3-------|-----3-------|
 G |-------2---2-|-------2---2-|-------2---2-|-------2---2-|
 D |-0-0-----0---|-0-0-----0---|-0-0-----0---|-0-0-----0---|
 A |-------------|-------------|-------------|-------------|
 E |-------------|-------------|-------------|-------------|

When you fall like a statue, I'm gon' be there to catch you
[Asus4] [Asus4]  
 
 E |-------------|-------------|-------------|-------------|
 B |-----3-------|-----3-------|-----3-------|-----3-------|
 G |-------2---2-|-------2---2-|-------2---2-|-------2---2-|
 D |---------2---|---------2---|---------2---|---------2---|
 A |-0-0---------|-0-0---------|-0-0---------|-0-0---------|
 E |-------------|-------------|-------------|-------------|

Put you on your feet, you on your feet
[Bm] [Bm]  
 
 E |-------------|-------------|-------------|-------------|
 B |-----3-------|-----3-------|-----3-------|-----3-------|
 G |-------2---2-|-------2---2-|-------2---2-|-------2---2-|
 D |---------0---|---------0---|---------0---|---------0---|
 A |-2-2---------|-2-2---------|-2-2---------|-2-2---------|
 E |-------------|-------------|-------------|-------------|

And if your well is empty, not a thing will prevent me
[G] [G]  
 
 E |-------------|-------------|-------------|-------------|
 B |-----3-------|-----3-------|-----3-------|-----3-------|
 G |-------0---0-|-------0---0-|-------0---0-|-------0---0-|
 D |---------0---|---------0---|---------0---|---------0---|
 A |-------------|-------------|-------------|-------------|
 E |-3-3---------|-3-3---------|-3-3---------|-3-3---------|

Tell me what you need, what do you need
Pre-Chorus
I sur[G]render [D]honest[A]ly
You've always [G]done the [D]same for [A]me
Chorus
And I would do it for [G]yoooo[D]uuuu, for [Bm]yoooo[A]uuuu
Baby, [G]I'm not moving [D]on
I'll love you [Bm]long after you're [A]gone.
For [G]yoooo[D]uuuu, for [Bm]yoooo[A]uuuu.
You will [G]never sleep [D]alone
I'll love you [Bm]long after you're [A]gone
(Just Vocals) Bm
And long after you're gone, gone, gone.
Bridge
You're my back [D]bone, you're my corner[G]stone
You're my crutch when my legs stop moving[Bm]
You're my head [D]start, you're my rugged [G]heart
You're the pulse that I've always needed
Like a [D]drum, baby, [Bm]don't stop [A]beating[G]
Like a [D]drum, baby, [Bm]don't stop [A]beating[G]
Like a [D]drum, baby, [Bm]don't stop [A]beating[G]
Like a [D]drum my hear[Bm]t never sto[A]ps beating
Chorus
For [G]yoooo[D]uuuu, for [Bm]yoooo[A]uuuu
Baby, [G]I'm not moving [D]on
I'll love you [Bm]long after you're [A]gone.
For [G]yoooo[D]uuuu, for [Bm]yoooo[A]uuuu.
You will [G]never sleep [D]alone
I'll love you [Bm]long after you're [A]gone
For [G]yoooo[D]uuuu, for [Bm]yoooo[A]uuuu
Baby, [G]I'm not moving [D]on
I'll love you [Bm]long after you're [A]gone.
For [G]yoooo[D]uuuu, for [Bm]yoooo[A]uuuu.
You will [G]never sleep [D]alone
I'll love you [Bm]long after you're [A]gone
Like a [D]drum, baby, [Bm]don't stop [A]beating[G]
Like a [D]drum, baby, [Bm]don't stop [A]beating[G]
Like a [D]drum, baby, [Bm]don't stop [A]beating[G]
Like a [D]drum my hear[Bm]t never sto[A]ps beating
[D] [D]  
 
 E |-------------|-------------|-------------|-------------|
 B |-----3-------|-----3-------|-----3-------|-----3-----3-|
 G |-------2---2-|-------2---2-|-------2---2-|---2-----0---|
 D |-0-0-----0---|-0-0-----0---|-0-0-----0---|-4-----2-----|
 A |-------------|-------------|-------------|-------------|
 E |-------------|-------------|-------------|-------------|

And long after you're gone, gone,
[D] [D] [D]  
 
 E |-------------|-------------|-------------|-------------|-2-----------|
 B |-----3-------|-----3-------|-----3-------|-----3-----3-|-3-----------|
 G |-------2---2-|-------2---2-|-------2---2-|---2-----0---|-2-----------|
 D |-0-0-----0---|-0-0-----0---|-0-0-----0---|-4-----2-----|-0-----------|
 A |-------------|-------------|-------------|-------------|-------------|
 E |-------------|-------------|-------------|-------------|-------------|

gone. I'll love you long after you're gone gone, gone.

Important: The song above is NOT stored on the Chordie server. The original song is hosted at www.guitaretab.com. Chordie works as a search engine and provides on-the-fly formatting. Chordie does not index songs against artists'/composers' will. To remove this song please click here.

Text color:
Chord color:
Chord grids: 
Font size:    
Page size: 

A Asus4 Bm D G
Rate #2 of 9 versions

Login - add to songbook

SHARE PAGE  



You need to log in to post comments