Guitar Tabs, Chords and Lyrics
Major upgrade!! After one year development the new version of Chordie is now online! Please give feedback.


Bug  Phish

Intro 2x
[G] [F]  
 
 e---------------------------------------------------------------------|
 B---------------------------------------------------------------------|
 G--14p12-14p12-------14p12-14p12------12p10-12p10------12p10-12p10----|
 D--12----12----12----12----12----12---10----10----10---10----10----10-|
 A---------------------------------------------------------------------|
 E---------------------------------------------------------------------|

[C] [G]  
 
 e-------------------------------------------------------------|
 B--8v---------8-----------------------------------------------|
 G--9v---------9-----------------------12----12--14p12----14---|
 D--10v--------10----------------------12----12--------12------|
 A-------------------------------------------------------------|
 E-------------------------------------------------------------|

Verse
[G] [F] [C] [G]  
 
 e-------------------------------------------------------------|
 B-------------------------------------------------------------|
 G--12--12----10--10----9---9-----12--12-----------------------|
 D--12--12----10--10----10--10----12--12-----------------------|
 A-------------------------------------------------------------|
 E-------------------------------------------------------------|

There been times when I wander...and time's when I don't
Concepts I'll ponder...and concepts I won't ever see..
[G] [F]  
 
 e---------------------------------------------------------------------|
 B---------------------------------------------------------------------|
 G--14p12-14p12-------14p12-14p12------12p10-12p10------12p10-12p10----|
 D--12----12----12----12----12----12---10----10----10---10----10----10-|
 A---------------------------------------------------------------------|
 E---------------------------------------------------------------------|

God isn't one of these..
[C] [G]  
 
 e-------------------------------------------------------------|
 B--8v---------8-----------------------------------------------|
 G--9v---------9-----------------------12----12--14p12----14---|
 D--10v--------10----------------------12----12--------12------|
 A-------------------------------------------------------------|
 E-------------------------------------------------------------|

former or latter..
[G] [F]  
 
 e---------------------------------------------------------------------|
 B---------------------------------------------------------------------|
 G--14p12-14p12-------14p12-14p12------12p10-12p10------12p10-12p10----|
 D--12----12----12----12----12----12---10----10----10---10----10----10-|
 A---------------------------------------------------------------------|
 E---------------------------------------------------------------------|

which did you think, I meant?
[C] [G]  
 
 e-------------------------------------------------------------|
 B--8v---------8-----------------------------------------------|
 G--9v---------9-----------------------12----12--14p12----14---|
 D--10v--------10----------------------12----12--------12------|
 A-------------------------------------------------------------|
 E-------------------------------------------------------------|

it doesnt matter to me...
Bridge
[G] [F] [C]  
 
 e-------------------------------------------------------------|
 B-------------------------------------------------------------|
 G-------------------------------------------------------------|
 D---10/12-12/14-10------8/10-10/12-9--------------------------| 2x
 A-------------------------------------------------------------|
 E-------------------------------------------------------------|

Chorus
[F] [C] [G]  
 
 e-------------------------------------------------------------|
 B-----------------------------3-------------------------------|
 G-----------5-------------2/4---4/2-0-------------------------|
 D--3--------5--------5----------------------------------------|
 A--3--------3--------5----------------------------------------|
 E--1-----------------3----------------------------------------|

Bug, it doesn't matter
[F] [C] [G]  
 
 e-------------------------------------------------------------|
 B-----------------------------3-------------------------------|
 G-----------5-------------2/4---4/2-0-------------------------|
 D--3--------5--------5----------------------------------------|
 A--3--------3--------5----------------------------------------|
 E--1-----------------3----------------------------------------|

it doesn't matter
[F] [C] [G]  
 
 e-------------------------------------------------------------|
 B-----------------------------3-------------------------------|
 G-----------5-------------2/4---4/2-0-------------------------|
 D--3--------5--------5----------------------------------------|
 A--3--------3--------5----------------------------------------|
 E--1-----------------3----------------------------------------|

it doesn't matter
[F] [C] [G]  
 
 e-------------------------------------------------------------|
 B-------------------------------------------------------------|
 G-----------5-------------------------------------------------|
 D--3--------5--------5----------------------------------------|
 A--3--------3--------5----------------------------------------|
 E--1-----------------3----------------------------------------|

it doesn't matter
Verse
[G] [F] [C] [G]  
 
 e-------------------------------------------------------------|
 B-------------------------------------------------------------|
 G--12--12----10--10----9---9-----12--12-----------------------|
 D--12--12----10--10----10--10----12--12-----------------------|
 A-------------------------------------------------------------|
 E-------------------------------------------------------------|

Gold in my hand... in a country pool
[G] [F]  
 
 e---------------------------------------------------------------------|
 B---------------------------------------------------------------------|
 G--14p12-14p12-------14p12-14p12------12p10-12p10------12p10-12p10----|
 D--12----12----12----12----12----12---10----10----10---10----10----10-|
 A---------------------------------------------------------------------|
 E---------------------------------------------------------------------|

standing and waving
[C] [G]  
 
 e-------------------------------------------------------------|
 B--8v---------8-----------------------------------------------|
 G--9v---------9-----------------------12----12--14p12----14---|
 D--10v--------10----------------------12----12--------12------|
 A-------------------------------------------------------------|
 E-------------------------------------------------------------|

the rain.. wind on the runway
[G] [F]  
 
 e---------------------------------------------------------------------|
 B---------------------------------------------------------------------|
 G--14p12-14p12-------14p12-14p12------12p10-12p10------12p10-12p10----|
 D--12----12----12----12----12----12---10----10----10---10----10----10-|
 A---------------------------------------------------------------------|
 E---------------------------------------------------------------------|

spending or saving...
[C] [G]  
 
 e-------------------------------------------------------------|
 B--8v---------8-----------------------------------------------|
 G--9v---------9-----------------------12----12--14p12----14---|
 D--10v--------10----------------------12----12--------12------|
 A-------------------------------------------------------------|
 E-------------------------------------------------------------|

credit or debt..
[G] [F]  
 
 e---------------------------------------------------------------------|
 B---------------------------------------------------------------------|
 G--14p12-14p12-------14p12-14p12------12p10-12p10------12p10-12p10----|
 D--12----12----12----12----12----12---10----10----10---10----10----10-|
 A---------------------------------------------------------------------|
 E---------------------------------------------------------------------|

which did you think I meant?
[C] [G]  
 
 e-------------------------------------------------------------|
 B--8v---------8-----------------------------------------------|
 G--9v---------9-----------------------12----12----------------|
 D--10v--------10----------------------12----12----------------|
 A-------------------------------------------------------------|
 E-------------------------------------------------------------|

nothing I see can be taken from me...
Bridge (guitar 1)
G F c
 
 e-------------------------------------------------------------|
 B-------------------------------------------------------------|
 G-------------------------------------------------------------|
 D---10/12-12/14-10------8/10-10/12-9--------------------------| 2x
 A-------------------------------------------------------------|
 E-------------------------------------------------------------|

(guitar 2)
 
 e-------------------------------------------------------------|
 B------------------------15-----------------------------------|
 G--14b(16)r14-14b(16)r14----14-12-14b(16)-12------------------|
 D-------------------------------------------------------------| 2x
 A-------------------------------------------------------------|
 E-------------------------------------------------------------|

Chorus
[F] [C] [G]  
 
 e-------------------------------------------------------------|
 B-----------------------------3-------------------------------|
 G-----------5-------------2/4---4/2-0-------------------------|
 D--3--------5--------5----------------------------------------|
 A--3--------3--------5----------------------------------------|
 E--1-----------------3----------------------------------------|

Bug, it doesn't matter
[F] [C] [G]  
 
 e-------------------------------------------------------------|
 B-----------------------------3-------------------------------|
 G-----------5-------------2/4---4/2-0-------------------------|
 D--3--------5--------5----------------------------------------|
 A--3--------3--------5----------------------------------------|
 E--1-----------------3----------------------------------------|

it doesn't matter
[F] [C] [G]  
 
 e-------------------------------------------------------------|
 B-----------------------------3-------------------------------|
 G-----------5-------------2/4---4/2-0-------------------------|
 D--3--------5--------5----------------------------------------|
 A--3--------3--------5----------------------------------------|
 E--1-----------------3----------------------------------------|

it doesn't matter
[F] [C] [G]  
 
 e-------------------------------------------------------------|
 B-------------------------------------------------------------|
 G-----------5-------------------------------------------------|
 D--3--------5--------555555-----------------------------------|
 A--3--------3--------555555-----------------------------------|
 E--1-----------------333333-----------------------------------|

it doesn't matter
before the solo
[G] [G] [C] [C] [G] [G]  
 
 E-------------------------------------------------------------|
 B-------------------------------------------------------------|
 G-----------5--5----------------------------------------------|
 D----5--5---5--5---5--5---------------------------------------| 4x
 A----5--5---3--3---5--5---------------------------------------|
 E----3--3----------3--3---------------------------------------|

it doesnt matter
Ending solo
 
 e---12-13-15--12h13p12----------------------------------------|
 B----------------------13-13/15-15-13p12-12h13p12-------------|
 G-------------------------------------------------14-12-------|
 D-------------------------------------------------------------| 8x
 A-------------------------------------------------------------|
 E-------------------------------------------------------------|

it doesn't matter...... it doesn't matter
then
 
 e---20p17-17/15-15/17-17/20-20//////--------------------------|
 B-------------------------------------------------------------|
 G-------------------------------------------------------------|
 D-------------------------------------------------------------|
 A-------------------------------------------------------------|
 E-------------------------------------------------------------|

then
End on G
 
 e---12-13-15--12h13p12----------------------------------------|
 B----------------------13-13/15-15-13p12-12h13p12-------------|
 G-------------------------------------------------14-12-------|
 D-------------------------------------------------------------|
 A-------------------------------------------------------------|
 E-------------------------------------------------------------|


Important: The song above is NOT stored on the Chordie server. The original song is hosted at www.guitaretab.com. Chordie works as a search engine and provides on-the-fly formatting. Chordie does not index songs against artists'/composers' will. To remove this song please click here.

Text color:
Chord color:
Chord grids: 
Font size:    
Page size: 

C F G
Rate #1 of 6 versions

Jango Player

Login - add to songbook

SHARE PAGE  



You need to log in to post comments