Guitar Tabs, Chords and Lyrics
Server problems seems to be fixed. Chordie has been experiencing problems with songs disappearing. These issues now seems to be fixed, but still verifying the fix. If you find anything strange, please email admin@chordie.com.


Corporal Clegg  Pink Floyd

Date: Thu, 8 Jun 1995 06:55:19 -0500
- C O R P O R A L C L E G G -
The Pink Floyd
Words and Music by Roger Waters
Riff 1:
~~~~~~~
 
 |-------------------------0----------------|
 |-------------------------8----------------|
 |-------------------------7----------------|
 |-------------------------6----------------|
 |-----2--3--2-------------7----------------|
 |--0-----------3---0------0----------------|

|
Bend (1/4)
[A]Corporal [C]Clegg[D] had a wooden l[A]eg.
N.C. E7+9
He won it in the war in nineteen forty-four.
[A]Corporal [C]Clegg[D] had a medal, t[A]oo,
N.C. E7+9
In orange, red and blue. He found it in the zoo.
Riff 2:
[Bm] [F#]  
 
 |-----------------------------------------------------|
 |-----------------------------------------------------|
 |-----------------------------------------------------|
 |-----4--3--------------------------------------------|
 |--2--------2--------2--------------------------------|
 |--------------3--5-----0---2-2--2-2--2-2-------------|

|
Bend (1/4)
[Bm]Dear, oh dear, oh, are they really [F#]sad for me?
[Bm]Dear, oh, dear, oh, will they really [F#]laugh at me?[D]
[D]Missus Clegg, you must be proud of h[G]im.
[D]Missus Clegg, another drop of g[G]in?
[A] [Ab] [G] [D] [A7] [D] [G] [D] [A7] [D]  
[A]Corporal [C]Clegg,[D] umbrella in the r[A]ain.
N.C. E7+9
He's never been the same. No one is to blame.
[A]Corporal [C]Clegg,[D] received his medal in a [A]dream
N.C. E7+9
>From Her Majesty, the Queen. His boots were very clean.
[D]Missus Clegg, you must be proud of h[G]im.
[D]Missus Clegg, another drop of g[D]in?
[A] [Ab] [G]  
[D]Corporal Clegg.[A7]
[D]Corporal Clegg.
 
 =-=-=-=-=-=-=-=-=-=-=-=-=-=-=-=-=-=-=-=-=-=-=-=-=-=-=-=-=-=-=-=-=-=-=-=-=

= F i S h - Current Adress: polivier@jrv.qc.ca
=
= Comments/Corrections/Other floyd's/I Want Roio's Please Email
me!!! =
 
 =-=-=-=-=-=-=-=-=-=-=-=-=-=-=-=-=-=-=-=-=-=-=-=-=-=-=-=-=-=-=-=-=-=-=-=-=

See ya!

Important: The song above is NOT stored on the Chordie server. The original song is hosted at www.guitaretab.com. Chordie works as a search engine and provides on-the-fly formatting. Chordie does not index songs against artists'/composers' will. To remove this song please click here.

Text color:
Chord color:
Chord grids: 
Font size:    
Page size: 

A A7 Ab Bm C D F# G
Rate #2 of 4 versions

Jango Player

Login - add to songbook

SHARE PAGE  




You need to log in to post comments